  0
SECTION
  2
HEADER
  9
$ACADVER
  1
AC1009
  9
$INSBASE
 10
   0.0000
 20
   0.0000
 30
    0.0
  9
$EXTMIN
 10
 -56.0000
 20
-102.0000
 30
   0.0000
  9
$EXTMAX
 10
2228.0033
 20
 926.2250
 30
   0.0000
  9
$LTSCALE
 40
1.00
  9
$PSLTSCALE
 70
1
  0
ENDSEC
  0
SECTION
  2
TABLES
  0
TABLE
  2
LTYPE
 70
  5
  0
LTYPE
  2
AUSGEZOGEN
 70
 64
  3
AUSGEZOGEN
 72
 65
 73
  0
 40
0.0
  0
LTYPE
  2
PUNKTIERT
 70
 64
  3
Gepunktet
 72
 65
 73
  2
 40
3.0000
 49
0.0
 49
-3.0000
  0
LTYPE
  2
STRICHLIERT
 70
 64
  3
Strichliert
 72
 65
 73
  2
 40
8.0000
 49
5.0000
 49
-3.0000
  0
LTYPE
  2
STRICHPUNKT
 70
 64
  3
Strichpunktet
 72
 65
 73
  4
 40
16.0000
 49
10.0000
 49
-3.0000
 49
0.0
 49
-3.0000
  0
LTYPE
  2
STRICHPUNKTPUNKT
 70
 64
  3
Strichpunktpunktet
 72
 65
 73
  6
 40
19.0000
 49
10.0000
 49
-3.0000
 49
0.0
 49
-3.0000
 49
0.0
 49
-3.0000
  0
ENDTAB
  0
TABLE
  2
LAYER
 70
7
  0
LAYER
  2
550
 70
  0
 62
  2
  6
AUSGEZOGEN
  0
LAYER
  2
510
 70
  0
 62
  2
  6
AUSGEZOGEN
  0
LAYER
  2
0
 70
  0
 62
  1
  6
AUSGEZOGEN
  0
LAYER
  2
200
 70
  0
 62
  7
  6
AUSGEZOGEN
  0
LAYER
  2
400
 70
  0
 62
  4
  6
AUSGEZOGEN
  0
LAYER
  2
410
 70
  0
 62
  6
  6
AUSGEZOGEN
  0
LAYER
  2
420
 70
  0
 62
  2
  6
AUSGEZOGEN
  0
ENDTAB
  0
TABLE
  2
STYLE
 70
  1
  0
STYLE
  2
STANDARD
 70
 64
 40
0.0
 41
1.0
 50
0.0
 71
  0
 42
30.0
  3
TXT8.SHX
  4

  0
ENDTAB
  0
ENDSEC
  0
SECTION
  2
ENTITIES
  0
TEXT
  8
400
 10
 700.0000
 20
 405.0000
 40
  40.5000
  1
EZ: 230V 50Hz 0,76KW (OKFF 377mm)
 50
   0.0000
 41
   0.8000
  7
STANDARD
  0
LINE
  8
400
  6
AUSGEZOGEN
 10
 686.5000
 20
 391.5000
 11
 513.0000
 21
 377.0000
  0
LINE
  8
400
  6
AUSGEZOGEN
 10
1505.8800
 20
 391.5000
 11
 686.5000
 21
 391.5000
  0
LINE
  8
400
  6
AUSGEZOGEN
 10
 513.0000
 20
 452.0000
 11
 513.0000
 21
 377.0000
  0
LINE
  8
400
  6
AUSGEZOGEN
 10
 513.0000
 20
 302.0000
 11
 513.0000
 21
 377.0000
  0
LINE
  8
400
  6
AUSGEZOGEN
 10
 588.0000
 20
 377.0000
 11
 513.0000
 21
 377.0000
  0
LINE
  8
400
  6
AUSGEZOGEN
 10
 438.0000
 20
 377.0000
 11
 513.0000
 21
 377.0000
  0
CIRCLE
  8
400
  6
AUSGEZOGEN
 10
 513.0000
 20
 377.0000
 40
  50.0000
  0
TEXT
  8
410
 10
 700.0000
 20
 285.0000
 40
  40.5000
  1
TWk: DN20   (OKFF 338mm)
 50
   0.0000
 41
   0.8000
  7
STANDARD
  0
LINE
  8
410
  6
AUSGEZOGEN
 10
 686.5000
 20
 271.5000
 11
 513.0000
 21
 338.0000
  0
LINE
  8
410
  6
AUSGEZOGEN
 10
1276.3200
 20
 271.5000
 11
 686.5000
 21
 271.5000
  0
LINE
  8
410
  6
AUSGEZOGEN
 10
 513.0000
 20
 413.0000
 11
 513.0000
 21
 338.0000
  0
LINE
  8
410
  6
AUSGEZOGEN
 10
 513.0000
 20
 263.0000
 11
 513.0000
 21
 338.0000
  0
LINE
  8
410
  6
AUSGEZOGEN
 10
 588.0000
 20
 338.0000
 11
 513.0000
 21
 338.0000
  0
LINE
  8
410
  6
AUSGEZOGEN
 10
 438.0000
 20
 338.0000
 11
 513.0000
 21
 338.0000
  0
CIRCLE
  8
410
  6
AUSGEZOGEN
 10
 513.0000
 20
 338.0000
 40
  50.0000
  0
TEXT
  8
410
 10
 700.0000
 20
 165.0000
 40
  40.5000
  1
TWk: DN20   (OKFF 213mm)
 50
   0.0000
 41
   0.8000
  7
STANDARD
  0
LINE
  8
410
  6
AUSGEZOGEN
 10
 686.5000
 20
 151.5000
 11
 513.0000
 21
 213.0000
  0
LINE
  8
410
  6
AUSGEZOGEN
 10
1267.4400
 20
 151.5000
 11
 686.5000
 21
 151.5000
  0
LINE
  8
410
  6
AUSGEZOGEN
 10
 513.0000
 20
 288.0000
 11
 513.0000
 21
 213.0000
  0
LINE
  8
410
  6
AUSGEZOGEN
 10
 513.0000
 20
 138.0000
 11
 513.0000
 21
 213.0000
  0
LINE
  8
410
  6
AUSGEZOGEN
 10
 588.0000
 20
 213.0000
 11
 513.0000
 21
 213.0000
  0
LINE
  8
410
  6
AUSGEZOGEN
 10
 438.0000
 20
 213.0000
 11
 513.0000
 21
 213.0000
  0
CIRCLE
  8
410
  6
AUSGEZOGEN
 10
 513.0000
 20
 213.0000
 40
  50.0000
  0
TEXT
  8
420
 10
 700.0000
 20
  45.0000
 40
  40.5000
  1
A: DN20   (OKFF 138mm)
 50
   0.0000
 41
   0.8000
  7
STANDARD
  0
LINE
  8
420
  6
AUSGEZOGEN
 10
 686.5000
 20
  31.5000
 11
 513.0000
 21
 138.0000
  0
LINE
  8
420
  6
AUSGEZOGEN
 10
1204.3200
 20
  31.5000
 11
 686.5000
 21
  31.5000
  0
LINE
  8
420
  6
AUSGEZOGEN
 10
 513.0000
 20
 213.0000
 11
 513.0000
 21
 138.0000
  0
LINE
  8
420
  6
AUSGEZOGEN
 10
 513.0000
 20
  63.0000
 11
 513.0000
 21
 138.0000
  0
LINE
  8
420
  6
AUSGEZOGEN
 10
 588.0000
 20
 138.0000
 11
 513.0000
 21
 138.0000
  0
LINE
  8
420
  6
AUSGEZOGEN
 10
 438.0000
 20
 138.0000
 11
 513.0000
 21
 138.0000
  0
CIRCLE
  8
420
  6
AUSGEZOGEN
 10
 513.0000
 20
 138.0000
 40
  50.0000
  0
TEXT
  8
420
 10
 700.0000
 20
 -75.0000
 40
  40.5000
  1
A: DN20   (OKFF 100mm)
 50
   0.0000
 41
   0.8000
  7
STANDARD
  0
LINE
  8
420
  6
AUSGEZOGEN
 10
 686.5000
 20
 -88.5000
 11
 513.0000
 21
 100.0000
  0
LINE
  8
420
  6
AUSGEZOGEN
 10
1195.2000
 20
 -88.5000
 11
 686.5000
 21
 -88.5000
  0
LINE
  8
420
  6
AUSGEZOGEN
 10
 513.0000
 20
 175.0000
 11
 513.0000
 21
 100.0000
  0
LINE
  8
420
  6
AUSGEZOGEN
 10
 513.0000
 20
  25.0000
 11
 513.0000
 21
 100.0000
  0
LINE
  8
420
  6
AUSGEZOGEN
 10
 588.0000
 20
 100.0000
 11
 513.0000
 21
 100.0000
  0
LINE
  8
420
  6
AUSGEZOGEN
 10
 438.0000
 20
 100.0000
 11
 513.0000
 21
 100.0000
  0
CIRCLE
  8
420
  6
AUSGEZOGEN
 10
 513.0000
 20
 100.0000
 40
  50.0000
  0
TEXT
  8
420
 10
 700.0000
 20
-195.0000
 40
  40.5000
  1
A: DN20   (OKFF 62mm)
 50
   0.0000
 41
   0.8000
  7
STANDARD
  0
LINE
  8
420
  6
AUSGEZOGEN
 10
 686.5000
 20
-208.5000
 11
 513.0000
 21
  62.0000
  0
LINE
  8
420
  6
AUSGEZOGEN
 10
1186.2000
 20
-208.5000
 11
 686.5000
 21
-208.5000
  0
LINE
  8
420
  6
AUSGEZOGEN
 10
 513.0000
 20
 137.0000
 11
 513.0000
 21
  62.0000
  0
LINE
  8
420
  6
AUSGEZOGEN
 10
 513.0000
 20
 -13.0000
 11
 513.0000
 21
  62.0000
  0
LINE
  8
420
  6
AUSGEZOGEN
 10
 588.0000
 20
  62.0000
 11
 513.0000
 21
  62.0000
  0
LINE
  8
420
  6
AUSGEZOGEN
 10
 438.0000
 20
  62.0000
 11
 513.0000
 21
  62.0000
  0
CIRCLE
  8
420
  6
AUSGEZOGEN
 10
 513.0000
 20
  62.0000
 40
  50.0000
  0
LINE
  8
200
  6
AUSGEZOGEN
 10
   0.0000
 20
   0.0000
 11
 560.0000
 21
   0.0000
  0
LINE
  8
200
  6
AUSGEZOGEN
 10
   0.0000
 20
 525.0000
 11
   0.0000
 21
   0.0000
  0
LINE
  8
200
  6
AUSGEZOGEN
 10
 560.0000
 20
 525.0000
 11
   0.0000
 21
 525.0000
  0
LINE
  8
200
  6
AUSGEZOGEN
 10
 560.0000
 20
   0.0000
 11
 560.0000
 21
 525.0000
  0
LINE
  8
200
  6
AUSGEZOGEN
 10
   0.0000
 20
  20.0000
 11
 560.0000
 21
  20.0000
  0
LINE
  8
200
  6
AUSGEZOGEN
 10
 415.0000
 20
 220.0000
 11
 355.0000
 21
 220.0000
  0
LINE
  8
200
  6
AUSGEZOGEN
 10
 285.0000
 20
 220.0000
 11
 345.0000
 21
 220.0000
  0
LINE
  8
200
  6
AUSGEZOGEN
 10
 215.0000
 20
 220.0000
 11
 275.0000
 21
 220.0000
  0
LINE
  8
200
  6
AUSGEZOGEN
 10
 145.0000
 20
 220.0000
 11
 205.0000
 21
 220.0000
  0
LINE
  8
200
  6
AUSGEZOGEN
 10
 205.0000
 20
 200.0000
 11
 145.0000
 21
 200.0000
  0
LINE
  8
200
  6
AUSGEZOGEN
 10
 275.0000
 20
 200.0000
 11
 215.0000
 21
 200.0000
  0
LINE
  8
200
  6
AUSGEZOGEN
 10
 345.0000
 20
 200.0000
 11
 285.0000
 21
 200.0000
  0
LINE
  8
200
  6
AUSGEZOGEN
 10
 415.0000
 20
 200.0000
 11
 355.0000
 21
 200.0000
  0
LINE
  8
200
  6
AUSGEZOGEN
 10
 355.0000
 20
 180.0000
 11
 415.0000
 21
 180.0000
  0
LINE
  8
200
  6
AUSGEZOGEN
 10
 285.0000
 20
 180.0000
 11
 345.0000
 21
 180.0000
  0
LINE
  8
200
  6
AUSGEZOGEN
 10
 215.0000
 20
 180.0000
 11
 275.0000
 21
 180.0000
  0
LINE
  8
200
  6
AUSGEZOGEN
 10
 145.0000
 20
 180.0000
 11
 205.0000
 21
 180.0000
  0
LINE
  8
200
  6
AUSGEZOGEN
 10
 205.0000
 20
 160.0000
 11
 145.0000
 21
 160.0000
  0
LINE
  8
200
  6
AUSGEZOGEN
 10
 275.0000
 20
 160.0000
 11
 215.0000
 21
 160.0000
  0
LINE
  8
200
  6
AUSGEZOGEN
 10
 345.0000
 20
 160.0000
 11
 285.0000
 21
 160.0000
  0
LINE
  8
200
  6
AUSGEZOGEN
 10
 415.0000
 20
 160.0000
 11
 355.0000
 21
 160.0000
  0
LINE
  8
200
  6
AUSGEZOGEN
 10
 355.0000
 20
 140.0000
 11
 415.0000
 21
 140.0000
  0
LINE
  8
200
  6
AUSGEZOGEN
 10
 285.0000
 20
 140.0000
 11
 345.0000
 21
 140.0000
  0
LINE
  8
200
  6
AUSGEZOGEN
 10
 215.0000
 20
 140.0000
 11
 275.0000
 21
 140.0000
  0
LINE
  8
200
  6
AUSGEZOGEN
 10
 145.0000
 20
 140.0000
 11
 205.0000
 21
 140.0000
  0
LINE
  8
200
  6
AUSGEZOGEN
 10
 205.0000
 20
 120.0000
 11
 145.0000
 21
 120.0000
  0
LINE
  8
200
  6
AUSGEZOGEN
 10
 275.0000
 20
 120.0000
 11
 215.0000
 21
 120.0000
  0
LINE
  8
200
  6
AUSGEZOGEN
 10
 345.0000
 20
 120.0000
 11
 285.0000
 21
 120.0000
  0
LINE
  8
200
  6
AUSGEZOGEN
 10
 415.0000
 20
 120.0000
 11
 355.0000
 21
 120.0000
  0
LINE
  8
200
  6
AUSGEZOGEN
 10
 355.0000
 20
 100.0000
 11
 415.0000
 21
 100.0000
  0
LINE
  8
200
  6
AUSGEZOGEN
 10
 285.0000
 20
 100.0000
 11
 345.0000
 21
 100.0000
  0
LINE
  8
200
  6
AUSGEZOGEN
 10
 215.0000
 20
 100.0000
 11
 275.0000
 21
 100.0000
  0
LINE
  8
200
  6
AUSGEZOGEN
 10
 145.0000
 20
 100.0000
 11
 205.0000
 21
 100.0000
  0
LINE
  8
200
  6
AUSGEZOGEN
 10
 205.0000
 20
  80.0000
 11
 145.0000
 21
  80.0000
  0
LINE
  8
200
  6
AUSGEZOGEN
 10
 275.0000
 20
  80.0000
 11
 215.0000
 21
  80.0000
  0
LINE
  8
200
  6
AUSGEZOGEN
 10
 415.0000
 20
  80.0000
 11
 355.0000
 21
  80.0000
  0
LINE
  8
200
  6
AUSGEZOGEN
 10
 285.0000
 20
  80.0000
 11
 345.0000
 21
  80.0000
  0
LINE
  8
200
  6
AUSGEZOGEN
 10
 345.0000
 20
  40.0000
 11
 285.0000
 21
  40.0000
  0
LINE
  8
200
  6
AUSGEZOGEN
 10
 415.0000
 20
  40.0000
 11
 355.0000
 21
  40.0000
  0
LINE
  8
200
  6
AUSGEZOGEN
 10
 355.0000
 20
  60.0000
 11
 415.0000
 21
  60.0000
  0
LINE
  8
200
  6
AUSGEZOGEN
 10
 285.0000
 20
  60.0000
 11
 345.0000
 21
  60.0000
  0
LINE
  8
200
  6
AUSGEZOGEN
 10
 215.0000
 20
  60.0000
 11
 275.0000
 21
  60.0000
  0
LINE
  8
200
  6
AUSGEZOGEN
 10
 145.0000
 20
  60.0000
 11
 205.0000
 21
  60.0000
  0
LINE
  8
200
  6
AUSGEZOGEN
 10
 205.0000
 20
  40.0000
 11
 145.0000
 21
  40.0000
  0
LINE
  8
200
  6
AUSGEZOGEN
 10
 275.0000
 20
  40.0000
 11
 215.0000
 21
  40.0000
  0
LINE
  8
200
  6
AUSGEZOGEN
 10
  46.0000
 20
 485.0000
 11
 114.0000
 21
 485.0000
  0
LINE
  8
200
  6
AUSGEZOGEN
 10
 114.0000
 20
 425.0000
 11
 114.0000
 21
 485.0000
  0
LINE
  8
200
  6
AUSGEZOGEN
 10
  46.0000
 20
 425.0000
 11
 114.0000
 21
 425.0000
  0
LINE
  8
200
  6
AUSGEZOGEN
 10
  46.0000
 20
 485.0000
 11
  46.0000
 21
 425.0000
  0
LINE
  8
200
  6
AUSGEZOGEN
 10
 515.0000
 20
 455.0000
 11
 515.0000
 21
 485.0000
  0
LINE
  8
200
  6
AUSGEZOGEN
 10
 424.0000
 20
 455.0000
 11
 515.0000
 21
 455.0000
  0
LINE
  8
200
  6
AUSGEZOGEN
 10
 424.0000
 20
 485.0000
 11
 424.0000
 21
 455.0000
  0
LINE
  8
200
  6
AUSGEZOGEN
 10
 515.0000
 20
 485.0000
 11
 424.0000
 21
 485.0000
  0
ATTDEF
  8
550
 10
10.0
 20
100.0
 30
0.0
 40
30
  1
NOR-41322500002
  2
NO00053V
  3
HKI-Nummer
 70
1
  0
TEXT
  8
510
 10
10.0
 20
-45.0
 30
0.0
 40
30
  1
NOR-41322500002
 50
0.0
 41
1.0
  7
STANDARD
  0
ENDSEC
  0
EOF
