  0
SECTION
  2
HEADER
  9
$ACADVER
  1
AC1009
  9
$INSBASE
 10
   0.0000
 20
   0.0000
 30
    0.0
  9
$EXTMIN
 10
 -53.5000
 20
-118.5000
 30
   0.0000
  9
$EXTMAX
 10
2161.6800
 20
1091.2250
 30
   0.0000
  9
$LTSCALE
 40
1.00
  9
$PSLTSCALE
 70
1
  0
ENDSEC
  0
SECTION
  2
TABLES
  0
TABLE
  2
LTYPE
 70
  5
  0
LTYPE
  2
AUSGEZOGEN
 70
 64
  3
AUSGEZOGEN
 72
 65
 73
  0
 40
0.0
  0
LTYPE
  2
PUNKTIERT
 70
 64
  3
Gepunktet
 72
 65
 73
  2
 40
3.0000
 49
0.0
 49
-3.0000
  0
LTYPE
  2
STRICHLIERT
 70
 64
  3
Strichliert
 72
 65
 73
  2
 40
8.0000
 49
5.0000
 49
-3.0000
  0
LTYPE
  2
STRICHPUNKT
 70
 64
  3
Strichpunktet
 72
 65
 73
  4
 40
16.0000
 49
10.0000
 49
-3.0000
 49
0.0
 49
-3.0000
  0
LTYPE
  2
STRICHPUNKTPUNKT
 70
 64
  3
Strichpunktpunktet
 72
 65
 73
  6
 40
19.0000
 49
10.0000
 49
-3.0000
 49
0.0
 49
-3.0000
 49
0.0
 49
-3.0000
  0
ENDTAB
  0
TABLE
  2
LAYER
 70
7
  0
LAYER
  2
550
 70
  0
 62
  2
  6
AUSGEZOGEN
  0
LAYER
  2
510
 70
  0
 62
  2
  6
AUSGEZOGEN
  0
LAYER
  2
0
 70
  0
 62
  1
  6
AUSGEZOGEN
  0
LAYER
  2
200
 70
  0
 62
  7
  6
AUSGEZOGEN
  0
LAYER
  2
400
 70
  0
 62
  4
  6
AUSGEZOGEN
  0
LAYER
  2
410
 70
  0
 62
  6
  6
AUSGEZOGEN
  0
LAYER
  2
420
 70
  0
 62
  2
  6
AUSGEZOGEN
  0
ENDTAB
  0
TABLE
  2
STYLE
 70
  1
  0
STYLE
  2
STANDARD
 70
 64
 40
0.0
 41
1.0
 50
0.0
 71
  0
 42
30.0
  3
TXT8.SHX
  4

  0
ENDTAB
  0
ENDSEC
  0
SECTION
  2
ENTITIES
  0
TEXT
  8
400
 10
 668.7500
 20
 570.0000
 40
  40.5000
  1
EZ: 230V 50Hz 1,2KW (OKFF 377mm)
 50
   0.0000
 41
   0.8000
  7
STANDARD
  0
LINE
  8
400
  6
AUSGEZOGEN
 10
 655.2500
 20
 556.5000
 11
 488.0000
 21
 377.0000
  0
LINE
  8
400
  6
AUSGEZOGEN
 10
1443.3100
 20
 556.5000
 11
 655.2500
 21
 556.5000
  0
LINE
  8
400
  6
AUSGEZOGEN
 10
 488.0000
 20
 377.0000
 11
 488.0000
 21
 452.0000
  0
LINE
  8
400
  6
AUSGEZOGEN
 10
 488.0000
 20
 302.0000
 11
 488.0000
 21
 377.0000
  0
LINE
  8
400
  6
AUSGEZOGEN
 10
 563.0000
 20
 377.0000
 11
 488.0000
 21
 377.0000
  0
LINE
  8
400
  6
AUSGEZOGEN
 10
 413.0000
 20
 377.0000
 11
 488.0000
 21
 377.0000
  0
CIRCLE
  8
400
  6
AUSGEZOGEN
 10
 488.0000
 20
 377.0000
 40
  50.0000
  0
TEXT
  8
410
 10
 668.7500
 20
 450.0000
 40
  40.5000
  1
TWk: DN20   (OKFF 338mm)
 50
   0.0000
 41
   0.8000
  7
STANDARD
  0
LINE
  8
410
  6
AUSGEZOGEN
 10
 655.2500
 20
 436.5000
 11
 488.0000
 21
 338.0000
  0
LINE
  8
410
  6
AUSGEZOGEN
 10
1245.0700
 20
 436.5000
 11
 655.2500
 21
 436.5000
  0
LINE
  8
410
  6
AUSGEZOGEN
 10
 488.0000
 20
 338.0000
 11
 488.0000
 21
 413.0000
  0
LINE
  8
410
  6
AUSGEZOGEN
 10
 488.0000
 20
 263.0000
 11
 488.0000
 21
 338.0000
  0
LINE
  8
410
  6
AUSGEZOGEN
 10
 563.0000
 20
 338.0000
 11
 488.0000
 21
 338.0000
  0
LINE
  8
410
  6
AUSGEZOGEN
 10
 413.0000
 20
 338.0000
 11
 488.0000
 21
 338.0000
  0
CIRCLE
  8
410
  6
AUSGEZOGEN
 10
 488.0000
 20
 338.0000
 40
  50.0000
  0
TEXT
  8
410
 10
 668.7500
 20
 330.0000
 40
  40.5000
  1
TWk: DN20   (OKFF 213mm)
 50
   0.0000
 41
   0.8000
  7
STANDARD
  0
LINE
  8
410
  6
AUSGEZOGEN
 10
 655.2500
 20
 316.5000
 11
 488.0000
 21
 213.0000
  0
LINE
  8
410
  6
AUSGEZOGEN
 10
1236.1900
 20
 316.5000
 11
 655.2500
 21
 316.5000
  0
LINE
  8
410
  6
AUSGEZOGEN
 10
 488.0000
 20
 213.0000
 11
 488.0000
 21
 288.0000
  0
LINE
  8
410
  6
AUSGEZOGEN
 10
 488.0000
 20
 138.0000
 11
 488.0000
 21
 213.0000
  0
LINE
  8
410
  6
AUSGEZOGEN
 10
 563.0000
 20
 213.0000
 11
 488.0000
 21
 213.0000
  0
LINE
  8
410
  6
AUSGEZOGEN
 10
 413.0000
 20
 213.0000
 11
 488.0000
 21
 213.0000
  0
CIRCLE
  8
410
  6
AUSGEZOGEN
 10
 488.0000
 20
 213.0000
 40
  50.0000
  0
TEXT
  8
420
 10
 668.7500
 20
 210.0000
 40
  40.5000
  1
A: DN20   (OKFF 138mm)
 50
   0.0000
 41
   0.8000
  7
STANDARD
  0
LINE
  8
420
  6
AUSGEZOGEN
 10
 655.2500
 20
 196.5000
 11
 488.0000
 21
 138.0000
  0
LINE
  8
420
  6
AUSGEZOGEN
 10
1173.0700
 20
 196.5000
 11
 655.2500
 21
 196.5000
  0
LINE
  8
420
  6
AUSGEZOGEN
 10
 488.0000
 20
 138.0000
 11
 488.0000
 21
 213.0000
  0
LINE
  8
420
  6
AUSGEZOGEN
 10
 488.0000
 20
  63.0000
 11
 488.0000
 21
 138.0000
  0
LINE
  8
420
  6
AUSGEZOGEN
 10
 563.0000
 20
 138.0000
 11
 488.0000
 21
 138.0000
  0
LINE
  8
420
  6
AUSGEZOGEN
 10
 413.0000
 20
 138.0000
 11
 488.0000
 21
 138.0000
  0
CIRCLE
  8
420
  6
AUSGEZOGEN
 10
 488.0000
 20
 138.0000
 40
  50.0000
  0
TEXT
  8
420
 10
 668.7500
 20
  90.0000
 40
  40.5000
  1
A: DN20   (OKFF 100mm)
 50
   0.0000
 41
   0.8000
  7
STANDARD
  0
LINE
  8
420
  6
AUSGEZOGEN
 10
 655.2500
 20
  76.5000
 11
 488.0000
 21
 100.0000
  0
LINE
  8
420
  6
AUSGEZOGEN
 10
1163.9500
 20
  76.5000
 11
 655.2500
 21
  76.5000
  0
LINE
  8
420
  6
AUSGEZOGEN
 10
 488.0000
 20
 175.0000
 11
 488.0000
 21
 100.0000
  0
LINE
  8
420
  6
AUSGEZOGEN
 10
 488.0000
 20
  25.0000
 11
 488.0000
 21
 100.0000
  0
LINE
  8
420
  6
AUSGEZOGEN
 10
 563.0000
 20
 100.0000
 11
 488.0000
 21
 100.0000
  0
LINE
  8
420
  6
AUSGEZOGEN
 10
 413.0000
 20
 100.0000
 11
 488.0000
 21
 100.0000
  0
CIRCLE
  8
420
  6
AUSGEZOGEN
 10
 488.0000
 20
 100.0000
 40
  50.0000
  0
TEXT
  8
420
 10
 668.7500
 20
 -30.0000
 40
  40.5000
  1
A: DN20   (OKFF 62mm)
 50
   0.0000
 41
   0.8000
  7
STANDARD
  0
LINE
  8
420
  6
AUSGEZOGEN
 10
 655.2500
 20
 -43.5000
 11
 488.0000
 21
  62.0000
  0
LINE
  8
420
  6
AUSGEZOGEN
 10
1154.9500
 20
 -43.5000
 11
 655.2500
 21
 -43.5000
  0
LINE
  8
420
  6
AUSGEZOGEN
 10
 488.0000
 20
 137.0000
 11
 488.0000
 21
  62.0000
  0
LINE
  8
420
  6
AUSGEZOGEN
 10
 488.0000
 20
 -13.0000
 11
 488.0000
 21
  62.0000
  0
LINE
  8
420
  6
AUSGEZOGEN
 10
 563.0000
 20
  62.0000
 11
 488.0000
 21
  62.0000
  0
LINE
  8
420
  6
AUSGEZOGEN
 10
 413.0000
 20
  62.0000
 11
 488.0000
 21
  62.0000
  0
CIRCLE
  8
420
  6
AUSGEZOGEN
 10
 488.0000
 20
  62.0000
 40
  50.0000
  0
LINE
  8
200
  6
AUSGEZOGEN
 10
   0.0000
 20
   0.0000
 11
 535.0000
 21
   0.0000
  0
LINE
  8
200
  6
AUSGEZOGEN
 10
   0.0000
 20
 690.0000
 11
   0.0000
 21
   0.0000
  0
LINE
  8
200
  6
AUSGEZOGEN
 10
 535.0000
 20
 690.0000
 11
   0.0000
 21
 690.0000
  0
LINE
  8
200
  6
AUSGEZOGEN
 10
 535.0000
 20
   0.0000
 11
 535.0000
 21
 690.0000
  0
LINE
  8
200
  6
AUSGEZOGEN
 10
   0.0000
 20
  20.0000
 11
 535.0000
 21
  20.0000
  0
LINE
  8
200
  6
AUSGEZOGEN
 10
 332.0000
 20
  45.0000
 11
 272.0000
 21
  45.0000
  0
LINE
  8
200
  6
AUSGEZOGEN
 10
 402.0000
 20
  45.0000
 11
 342.0000
 21
  45.0000
  0
LINE
  8
200
  6
AUSGEZOGEN
 10
 342.0000
 20
  65.0000
 11
 402.0000
 21
  65.0000
  0
LINE
  8
200
  6
AUSGEZOGEN
 10
 272.0000
 20
  65.0000
 11
 332.0000
 21
  65.0000
  0
LINE
  8
200
  6
AUSGEZOGEN
 10
 332.0000
 20
  85.0000
 11
 272.0000
 21
  85.0000
  0
LINE
  8
200
  6
AUSGEZOGEN
 10
 402.0000
 20
  85.0000
 11
 342.0000
 21
  85.0000
  0
LINE
  8
200
  6
AUSGEZOGEN
 10
 342.0000
 20
 105.0000
 11
 402.0000
 21
 105.0000
  0
LINE
  8
200
  6
AUSGEZOGEN
 10
 272.0000
 20
 105.0000
 11
 332.0000
 21
 105.0000
  0
LINE
  8
200
  6
AUSGEZOGEN
 10
 332.0000
 20
 125.0000
 11
 272.0000
 21
 125.0000
  0
LINE
  8
200
  6
AUSGEZOGEN
 10
 402.0000
 20
 125.0000
 11
 342.0000
 21
 125.0000
  0
LINE
  8
200
  6
AUSGEZOGEN
 10
 342.0000
 20
 145.0000
 11
 402.0000
 21
 145.0000
  0
LINE
  8
200
  6
AUSGEZOGEN
 10
 272.0000
 20
 145.0000
 11
 332.0000
 21
 145.0000
  0
LINE
  8
200
  6
AUSGEZOGEN
 10
 332.0000
 20
 165.0000
 11
 272.0000
 21
 165.0000
  0
LINE
  8
200
  6
AUSGEZOGEN
 10
 402.0000
 20
 165.0000
 11
 342.0000
 21
 165.0000
  0
LINE
  8
200
  6
AUSGEZOGEN
 10
 342.0000
 20
 185.0000
 11
 402.0000
 21
 185.0000
  0
LINE
  8
200
  6
AUSGEZOGEN
 10
 272.0000
 20
 185.0000
 11
 332.0000
 21
 185.0000
  0
LINE
  8
200
  6
AUSGEZOGEN
 10
 202.0000
 20
 165.0000
 11
 262.0000
 21
 165.0000
  0
LINE
  8
200
  6
AUSGEZOGEN
 10
 262.0000
 20
 145.0000
 11
 202.0000
 21
 145.0000
  0
LINE
  8
200
  6
AUSGEZOGEN
 10
 202.0000
 20
 125.0000
 11
 262.0000
 21
 125.0000
  0
LINE
  8
200
  6
AUSGEZOGEN
 10
 262.0000
 20
 105.0000
 11
 202.0000
 21
 105.0000
  0
LINE
  8
200
  6
AUSGEZOGEN
 10
 202.0000
 20
  85.0000
 11
 262.0000
 21
  85.0000
  0
LINE
  8
200
  6
AUSGEZOGEN
 10
 262.0000
 20
  65.0000
 11
 202.0000
 21
  65.0000
  0
LINE
  8
200
  6
AUSGEZOGEN
 10
 202.0000
 20
  45.0000
 11
 262.0000
 21
  45.0000
  0
LINE
  8
200
  6
AUSGEZOGEN
 10
 132.0000
 20
  45.0000
 11
 192.0000
 21
  45.0000
  0
LINE
  8
200
  6
AUSGEZOGEN
 10
 192.0000
 20
  65.0000
 11
 132.0000
 21
  65.0000
  0
LINE
  8
200
  6
AUSGEZOGEN
 10
 132.0000
 20
  85.0000
 11
 192.0000
 21
  85.0000
  0
LINE
  8
200
  6
AUSGEZOGEN
 10
 192.0000
 20
 105.0000
 11
 132.0000
 21
 105.0000
  0
LINE
  8
200
  6
AUSGEZOGEN
 10
 132.0000
 20
 125.0000
 11
 192.0000
 21
 125.0000
  0
LINE
  8
200
  6
AUSGEZOGEN
 10
 192.0000
 20
 145.0000
 11
 132.0000
 21
 145.0000
  0
LINE
  8
200
  6
AUSGEZOGEN
 10
 132.0000
 20
 165.0000
 11
 192.0000
 21
 165.0000
  0
LINE
  8
200
  6
AUSGEZOGEN
 10
 192.0000
 20
 185.0000
 11
 132.0000
 21
 185.0000
  0
LINE
  8
200
  6
AUSGEZOGEN
 10
 262.0000
 20
 185.0000
 11
 202.0000
 21
 185.0000
  0
LINE
  8
200
  6
AUSGEZOGEN
 10
 402.0000
 20
 345.0000
 11
 342.0000
 21
 345.0000
  0
LINE
  8
200
  6
AUSGEZOGEN
 10
 272.0000
 20
 345.0000
 11
 332.0000
 21
 345.0000
  0
LINE
  8
200
  6
AUSGEZOGEN
 10
 202.0000
 20
 345.0000
 11
 262.0000
 21
 345.0000
  0
LINE
  8
200
  6
AUSGEZOGEN
 10
 132.0000
 20
 345.0000
 11
 192.0000
 21
 345.0000
  0
LINE
  8
200
  6
AUSGEZOGEN
 10
 192.0000
 20
 325.0000
 11
 132.0000
 21
 325.0000
  0
LINE
  8
200
  6
AUSGEZOGEN
 10
 262.0000
 20
 325.0000
 11
 202.0000
 21
 325.0000
  0
LINE
  8
200
  6
AUSGEZOGEN
 10
 332.0000
 20
 325.0000
 11
 272.0000
 21
 325.0000
  0
LINE
  8
200
  6
AUSGEZOGEN
 10
 402.0000
 20
 325.0000
 11
 342.0000
 21
 325.0000
  0
LINE
  8
200
  6
AUSGEZOGEN
 10
 342.0000
 20
 305.0000
 11
 402.0000
 21
 305.0000
  0
LINE
  8
200
  6
AUSGEZOGEN
 10
 272.0000
 20
 305.0000
 11
 332.0000
 21
 305.0000
  0
LINE
  8
200
  6
AUSGEZOGEN
 10
 202.0000
 20
 305.0000
 11
 262.0000
 21
 305.0000
  0
LINE
  8
200
  6
AUSGEZOGEN
 10
 132.0000
 20
 305.0000
 11
 192.0000
 21
 305.0000
  0
LINE
  8
200
  6
AUSGEZOGEN
 10
 192.0000
 20
 285.0000
 11
 132.0000
 21
 285.0000
  0
LINE
  8
200
  6
AUSGEZOGEN
 10
 262.0000
 20
 285.0000
 11
 202.0000
 21
 285.0000
  0
LINE
  8
200
  6
AUSGEZOGEN
 10
 332.0000
 20
 285.0000
 11
 272.0000
 21
 285.0000
  0
LINE
  8
200
  6
AUSGEZOGEN
 10
 402.0000
 20
 285.0000
 11
 342.0000
 21
 285.0000
  0
LINE
  8
200
  6
AUSGEZOGEN
 10
 342.0000
 20
 265.0000
 11
 402.0000
 21
 265.0000
  0
LINE
  8
200
  6
AUSGEZOGEN
 10
 272.0000
 20
 265.0000
 11
 332.0000
 21
 265.0000
  0
LINE
  8
200
  6
AUSGEZOGEN
 10
 202.0000
 20
 265.0000
 11
 262.0000
 21
 265.0000
  0
LINE
  8
200
  6
AUSGEZOGEN
 10
 132.0000
 20
 265.0000
 11
 192.0000
 21
 265.0000
  0
LINE
  8
200
  6
AUSGEZOGEN
 10
 192.0000
 20
 245.0000
 11
 132.0000
 21
 245.0000
  0
LINE
  8
200
  6
AUSGEZOGEN
 10
 262.0000
 20
 245.0000
 11
 202.0000
 21
 245.0000
  0
LINE
  8
200
  6
AUSGEZOGEN
 10
 402.0000
 20
 245.0000
 11
 342.0000
 21
 245.0000
  0
LINE
  8
200
  6
AUSGEZOGEN
 10
 272.0000
 20
 245.0000
 11
 332.0000
 21
 245.0000
  0
LINE
  8
200
  6
AUSGEZOGEN
 10
 332.0000
 20
 205.0000
 11
 272.0000
 21
 205.0000
  0
LINE
  8
200
  6
AUSGEZOGEN
 10
 402.0000
 20
 205.0000
 11
 342.0000
 21
 205.0000
  0
LINE
  8
200
  6
AUSGEZOGEN
 10
 342.0000
 20
 225.0000
 11
 402.0000
 21
 225.0000
  0
LINE
  8
200
  6
AUSGEZOGEN
 10
 272.0000
 20
 225.0000
 11
 332.0000
 21
 225.0000
  0
LINE
  8
200
  6
AUSGEZOGEN
 10
 202.0000
 20
 225.0000
 11
 262.0000
 21
 225.0000
  0
LINE
  8
200
  6
AUSGEZOGEN
 10
 132.0000
 20
 225.0000
 11
 192.0000
 21
 225.0000
  0
LINE
  8
200
  6
AUSGEZOGEN
 10
 192.0000
 20
 205.0000
 11
 132.0000
 21
 205.0000
  0
LINE
  8
200
  6
AUSGEZOGEN
 10
 262.0000
 20
 205.0000
 11
 202.0000
 21
 205.0000
  0
LINE
  8
200
  6
AUSGEZOGEN
 10
  33.0000
 20
 650.0000
 11
 101.0000
 21
 650.0000
  0
LINE
  8
200
  6
AUSGEZOGEN
 10
 101.0000
 20
 590.0000
 11
 101.0000
 21
 650.0000
  0
LINE
  8
200
  6
AUSGEZOGEN
 10
  33.0000
 20
 590.0000
 11
 101.0000
 21
 590.0000
  0
LINE
  8
200
  6
AUSGEZOGEN
 10
  33.0000
 20
 650.0000
 11
  33.0000
 21
 590.0000
  0
LINE
  8
200
  6
AUSGEZOGEN
 10
 502.0000
 20
 620.0000
 11
 502.0000
 21
 650.0000
  0
LINE
  8
200
  6
AUSGEZOGEN
 10
 411.0000
 20
 620.0000
 11
 502.0000
 21
 620.0000
  0
LINE
  8
200
  6
AUSGEZOGEN
 10
 411.0000
 20
 650.0000
 11
 411.0000
 21
 620.0000
  0
LINE
  8
200
  6
AUSGEZOGEN
 10
 502.0000
 20
 650.0000
 11
 411.0000
 21
 650.0000
  0
ATTDEF
  8
550
 10
10.0
 20
100.0
 30
0.0
 40
30
  1
NOR-41324000002
  2
NO00055V
  3
HKI-Nummer
 70
1
  0
TEXT
  8
510
 10
10.0
 20
-45.0
 30
0.0
 40
30
  1
NOR-41324000002
 50
0.0
 41
1.0
  7
STANDARD
  0
ENDSEC
  0
EOF
