  0
SECTION
  2
HEADER
  9
$ACADVER
  1
AC1009
  9
$INSBASE
 10
   0.0000
 20
   0.0000
 30
    0.0
  9
$EXTMIN
 10
 -60.2000
 20
-134.5000
 30
   0.0000
  9
$EXTMAX
 10
2261.7533
 20
1251.2250
 30
   0.0000
  9
$LTSCALE
 40
1.00
  9
$PSLTSCALE
 70
1
  0
ENDSEC
  0
SECTION
  2
TABLES
  0
TABLE
  2
LTYPE
 70
  5
  0
LTYPE
  2
AUSGEZOGEN
 70
 64
  3
AUSGEZOGEN
 72
 65
 73
  0
 40
0.0
  0
LTYPE
  2
PUNKTIERT
 70
 64
  3
Gepunktet
 72
 65
 73
  2
 40
3.0000
 49
0.0
 49
-3.0000
  0
LTYPE
  2
STRICHLIERT
 70
 64
  3
Strichliert
 72
 65
 73
  2
 40
8.0000
 49
5.0000
 49
-3.0000
  0
LTYPE
  2
STRICHPUNKT
 70
 64
  3
Strichpunktet
 72
 65
 73
  4
 40
16.0000
 49
10.0000
 49
-3.0000
 49
0.0
 49
-3.0000
  0
LTYPE
  2
STRICHPUNKTPUNKT
 70
 64
  3
Strichpunktpunktet
 72
 65
 73
  6
 40
19.0000
 49
10.0000
 49
-3.0000
 49
0.0
 49
-3.0000
 49
0.0
 49
-3.0000
  0
ENDTAB
  0
TABLE
  2
LAYER
 70
5
  0
LAYER
  2
550
 70
  0
 62
  2
  6
AUSGEZOGEN
  0
LAYER
  2
510
 70
  0
 62
  2
  6
AUSGEZOGEN
  0
LAYER
  2
0
 70
  0
 62
  1
  6
AUSGEZOGEN
  0
LAYER
  2
200
 70
  0
 62
  7
  6
AUSGEZOGEN
  0
LAYER
  2
400
 70
  0
 62
  4
  6
AUSGEZOGEN
  0
ENDTAB
  0
TABLE
  2
STYLE
 70
  1
  0
STYLE
  2
STANDARD
 70
 64
 40
0.0
 41
1.0
 50
0.0
 71
  0
 42
30.0
  3
TXT8.SHX
  4

  0
ENDTAB
  0
ENDSEC
  0
SECTION
  2
ENTITIES
  0
TEXT
  8
400
 10
 752.5000
 20
 730.0000
 40
  40.5000
  1
EZ: 230V 50Hz 0,12KW (OKFF 300mm)
 50
   0.0000
 41
   0.8000
  7
STANDARD
  0
LINE
  8
400
  6
AUSGEZOGEN
 10
 739.0000
 20
 716.5000
 11
 300.0000
 21
 300.0000
  0
LINE
  8
400
  6
AUSGEZOGEN
 10
1540.3800
 20
 716.5000
 11
 739.0000
 21
 716.5000
  0
LINE
  8
400
  6
AUSGEZOGEN
 10
 300.0000
 20
 300.0000
 11
 300.0000
 21
 375.0000
  0
LINE
  8
400
  6
AUSGEZOGEN
 10
 300.0000
 20
 225.0000
 11
 300.0000
 21
 300.0000
  0
LINE
  8
400
  6
AUSGEZOGEN
 10
 375.0000
 20
 300.0000
 11
 300.0000
 21
 300.0000
  0
LINE
  8
400
  6
AUSGEZOGEN
 10
 225.0000
 20
 300.0000
 11
 300.0000
 21
 300.0000
  0
CIRCLE
  8
400
  6
AUSGEZOGEN
 10
 300.0000
 20
 300.0000
 40
  50.0000
  0
LINE
  8
200
  6
AUSGEZOGEN
 10
 602.0000
 20
 820.0000
 11
   0.0000
 21
 820.0000
  0
LINE
  8
200
  6
AUSGEZOGEN
 10
   0.0000
 20
 850.0000
 11
 602.0000
 21
 850.0000
  0
LINE
  8
200
  6
AUSGEZOGEN
 10
   0.0000
 20
  30.0000
 11
   0.0000
 21
 850.0000
  0
LINE
  8
200
  6
AUSGEZOGEN
 10
 602.0000
 20
 809.0000
 11
  10.0000
 21
 809.0000
  0
LINE
  8
200
  6
AUSGEZOGEN
 10
 602.0000
 20
  30.0000
 11
 602.0000
 21
 850.0000
  0
LINE
  8
200
  6
AUSGEZOGEN
 10
  10.0000
 20
  79.0000
 11
 602.0000
 21
  79.0000
  0
LINE
  8
200
  6
AUSGEZOGEN
 10
 544.0000
 20
   0.0000
 11
 544.0000
 21
  30.0000
  0
LINE
  8
200
  6
AUSGEZOGEN
 10
 572.0000
 20
  30.0000
 11
 572.0000
 21
   0.0000
  0
LINE
  8
200
  6
AUSGEZOGEN
 10
 544.0000
 20
   0.0000
 11
 572.0000
 21
   0.0000
  0
LINE
  8
200
  6
AUSGEZOGEN
 10
  30.0000
 20
  30.0000
 11
  30.0000
 21
   0.0000
  0
LINE
  8
200
  6
AUSGEZOGEN
 10
 602.0000
 20
  30.0000
 11
   0.0000
 21
  30.0000
  0
LINE
  8
200
  6
AUSGEZOGEN
 10
  58.0000
 20
   0.0000
 11
  58.0000
 21
  30.0000
  0
LINE
  8
200
  6
AUSGEZOGEN
 10
  30.0000
 20
   0.0000
 11
  58.0000
 21
   0.0000
  0
LINE
  8
200
  6
AUSGEZOGEN
 10
 567.0000
 20
  62.0000
 11
 517.0000
 21
  62.0000
  0
LINE
  8
200
  6
AUSGEZOGEN
 10
 436.0000
 20
  62.0000
 11
 487.0000
 21
  62.0000
  0
LINE
  8
200
  6
AUSGEZOGEN
 10
 356.0000
 20
  62.0000
 11
 406.0000
 21
  62.0000
  0
LINE
  8
200
  6
AUSGEZOGEN
 10
 276.0000
 20
  62.0000
 11
 326.0000
 21
  62.0000
  0
LINE
  8
200
  6
AUSGEZOGEN
 10
 196.0000
 20
  62.0000
 11
 246.0000
 21
  62.0000
  0
LINE
  8
200
  6
AUSGEZOGEN
 10
 115.0000
 20
  62.0000
 11
 166.0000
 21
  62.0000
  0
LINE
  8
200
  6
AUSGEZOGEN
 10
  35.0000
 20
  62.0000
 11
  85.0000
 21
  62.0000
  0
LINE
  8
200
  6
AUSGEZOGEN
 10
  85.0000
 20
  51.0000
 11
  35.0000
 21
  51.0000
  0
LINE
  8
200
  6
AUSGEZOGEN
 10
 166.0000
 20
  51.0000
 11
 115.0000
 21
  51.0000
  0
LINE
  8
200
  6
AUSGEZOGEN
 10
 246.0000
 20
  51.0000
 11
 196.0000
 21
  51.0000
  0
LINE
  8
200
  6
AUSGEZOGEN
 10
 326.0000
 20
  51.0000
 11
 276.0000
 21
  51.0000
  0
LINE
  8
200
  6
AUSGEZOGEN
 10
 406.0000
 20
  51.0000
 11
 356.0000
 21
  51.0000
  0
LINE
  8
200
  6
AUSGEZOGEN
 10
 487.0000
 20
  51.0000
 11
 436.0000
 21
  51.0000
  0
LINE
  8
200
  6
AUSGEZOGEN
 10
 567.0000
 20
  51.0000
 11
 517.0000
 21
  51.0000
  0
LINE
  8
200
  6
AUSGEZOGEN
 10
 517.0000
 20
  41.0000
 11
 567.0000
 21
  41.0000
  0
LINE
  8
200
  6
AUSGEZOGEN
 10
 436.0000
 20
  41.0000
 11
 487.0000
 21
  41.0000
  0
LINE
  8
200
  6
AUSGEZOGEN
 10
 356.0000
 20
  41.0000
 11
 406.0000
 21
  41.0000
  0
LINE
  8
200
  6
AUSGEZOGEN
 10
 276.0000
 20
  41.0000
 11
 326.0000
 21
  41.0000
  0
LINE
  8
200
  6
AUSGEZOGEN
 10
 196.0000
 20
  41.0000
 11
 246.0000
 21
  41.0000
  0
LINE
  8
200
  6
AUSGEZOGEN
 10
 115.0000
 20
  41.0000
 11
 166.0000
 21
  41.0000
  0
LINE
  8
200
  6
AUSGEZOGEN
 10
  35.0000
 20
  41.0000
 11
  85.0000
 21
  41.0000
  0
LINE
  8
200
  6
AUSGEZOGEN
 10
  30.0000
 20
 736.0000
 11
  30.0000
 21
 556.0000
  0
LINE
  8
200
  6
AUSGEZOGEN
 10
   0.0000
 20
 556.0000
 11
  30.0000
 21
 556.0000
  0
LINE
  8
200
  6
AUSGEZOGEN
 10
  30.0000
 20
 736.0000
 11
   0.0000
 21
 736.0000
  0
LINE
  8
200
  6
AUSGEZOGEN
 10
  10.0000
 20
 809.0000
 11
  10.0000
 21
 736.0000
  0
LINE
  8
200
  6
AUSGEZOGEN
 10
  10.0000
 20
  79.0000
 11
  10.0000
 21
 556.0000
  0
ATTDEF
  8
550
 10
10.0
 20
100.0
 30
0.0
 40
30
  1
NOR-405180020
  2
NO00009V
  3
HKI-Nummer
 70
1
  0
TEXT
  8
510
 10
10.0
 20
-45.0
 30
0.0
 40
30
  1
NOR-405180020
 50
0.0
 41
1.0
  7
STANDARD
  0
ENDSEC
  0
EOF
