  0
SECTION
  2
HEADER
  9
$ACADVER
  1
AC1009
  9
$INSBASE
 10
   0.0000
 20
   0.0000
 30
    0.0
  9
$EXTMIN
 10
 -92.0000
 20
-141.0000
 30
   0.0000
  9
$EXTMAX
 10
2647.2750
 20
1316.2250
 30
   0.0000
  9
$LTSCALE
 40
1.00
  9
$PSLTSCALE
 70
1
  0
ENDSEC
  0
SECTION
  2
TABLES
  0
TABLE
  2
LTYPE
 70
  5
  0
LTYPE
  2
AUSGEZOGEN
 70
 64
  3
AUSGEZOGEN
 72
 65
 73
  0
 40
0.0
  0
LTYPE
  2
PUNKTIERT
 70
 64
  3
Gepunktet
 72
 65
 73
  2
 40
3.0000
 49
0.0
 49
-3.0000
  0
LTYPE
  2
STRICHLIERT
 70
 64
  3
Strichliert
 72
 65
 73
  2
 40
8.0000
 49
5.0000
 49
-3.0000
  0
LTYPE
  2
STRICHPUNKT
 70
 64
  3
Strichpunktet
 72
 65
 73
  4
 40
16.0000
 49
10.0000
 49
-3.0000
 49
0.0
 49
-3.0000
  0
LTYPE
  2
STRICHPUNKTPUNKT
 70
 64
  3
Strichpunktpunktet
 72
 65
 73
  6
 40
19.0000
 49
10.0000
 49
-3.0000
 49
0.0
 49
-3.0000
 49
0.0
 49
-3.0000
  0
ENDTAB
  0
TABLE
  2
LAYER
 70
7
  0
LAYER
  2
550
 70
  0
 62
  2
  6
AUSGEZOGEN
  0
LAYER
  2
510
 70
  0
 62
  2
  6
AUSGEZOGEN
  0
LAYER
  2
0
 70
  0
 62
  1
  6
AUSGEZOGEN
  0
LAYER
  2
200
 70
  0
 62
  7
  6
AUSGEZOGEN
  0
LAYER
  2
400
 70
  0
 62
  4
  6
AUSGEZOGEN
  0
LAYER
  2
410
 70
  0
 62
  6
  6
AUSGEZOGEN
  0
LAYER
  2
420
 70
  0
 62
  2
  6
AUSGEZOGEN
  0
ENDTAB
  0
TABLE
  2
STYLE
 70
  1
  0
STYLE
  2
STANDARD
 70
 64
 40
0.0
 41
1.0
 50
0.0
 71
  0
 42
30.0
  3
TXT8.SHX
  4

  0
ENDTAB
  0
ENDSEC
  0
SECTION
  2
ENTITIES
  0
TEXT
  8
400
 10
1150.0000
 20
 795.0000
 40
  40.5000
  1
EZ: 230V 50Hz 0,6KW (OKFF 300mm)
 50
   0.0000
 41
   0.8000
  7
STANDARD
  0
LINE
  8
400
  6
AUSGEZOGEN
 10
1136.5000
 20
 781.5000
 11
  55.0000
 21
 300.0000
  0
LINE
  8
400
  6
AUSGEZOGEN
 10
1919.7600
 20
 781.5000
 11
1136.5000
 21
 781.5000
  0
LINE
  8
400
  6
AUSGEZOGEN
 10
  55.0000
 20
 300.0000
 11
  55.0000
 21
 375.0000
  0
LINE
  8
400
  6
AUSGEZOGEN
 10
  55.0000
 20
 225.0000
 11
  55.0000
 21
 300.0000
  0
LINE
  8
400
  6
AUSGEZOGEN
 10
 130.0000
 20
 300.0000
 11
  55.0000
 21
 300.0000
  0
LINE
  8
400
  6
AUSGEZOGEN
 10
 -20.0000
 20
 300.0000
 11
  55.0000
 21
 300.0000
  0
CIRCLE
  8
400
  6
AUSGEZOGEN
 10
  55.0000
 20
 300.0000
 40
  50.0000
  0
TEXT
  8
410
 10
1150.0000
 20
 435.0000
 40
  40.5000
  1
TWk: DN20   (OKFF 295mm)
 50
   0.0000
 41
   0.8000
  7
STANDARD
  0
LINE
  8
410
  6
AUSGEZOGEN
 10
1136.5000
 20
 421.5000
 11
  60.0000
 21
 295.0000
  0
LINE
  8
410
  6
AUSGEZOGEN
 10
1726.3200
 20
 421.5000
 11
1136.5000
 21
 421.5000
  0
LINE
  8
410
  6
AUSGEZOGEN
 10
  60.0000
 20
 295.0000
 11
  60.0000
 21
 370.0000
  0
LINE
  8
410
  6
AUSGEZOGEN
 10
  60.0000
 20
 220.0000
 11
  60.0000
 21
 295.0000
  0
LINE
  8
410
  6
AUSGEZOGEN
 10
 135.0000
 20
 295.0000
 11
  60.0000
 21
 295.0000
  0
LINE
  8
410
  6
AUSGEZOGEN
 10
 -15.0000
 20
 295.0000
 11
  60.0000
 21
 295.0000
  0
CIRCLE
  8
410
  6
AUSGEZOGEN
 10
  60.0000
 20
 295.0000
 40
  50.0000
  0
TEXT
  8
410
 10
1150.0000
 20
 315.0000
 40
  40.5000
  1
TWk: DN20   (OKFF 358mm)
 50
   0.0000
 41
   0.8000
  7
STANDARD
  0
LINE
  8
410
  6
AUSGEZOGEN
 10
1136.5000
 20
 301.5000
 11
  55.0000
 21
 358.0000
  0
LINE
  8
410
  6
AUSGEZOGEN
 10
1726.3200
 20
 301.5000
 11
1136.5000
 21
 301.5000
  0
LINE
  8
410
  6
AUSGEZOGEN
 10
  55.0000
 20
 433.0000
 11
  55.0000
 21
 358.0000
  0
LINE
  8
410
  6
AUSGEZOGEN
 10
  55.0000
 20
 283.0000
 11
  55.0000
 21
 358.0000
  0
LINE
  8
410
  6
AUSGEZOGEN
 10
 130.0000
 20
 358.0000
 11
  55.0000
 21
 358.0000
  0
LINE
  8
410
  6
AUSGEZOGEN
 10
 -20.0000
 20
 358.0000
 11
  55.0000
 21
 358.0000
  0
CIRCLE
  8
410
  6
AUSGEZOGEN
 10
  55.0000
 20
 358.0000
 40
  50.0000
  0
TEXT
  8
420
 10
1150.0000
 20
 675.0000
 40
  40.5000
  1
A: DN20   (OKFF 180mm)
 50
   0.0000
 41
   0.8000
  7
STANDARD
  0
LINE
  8
420
  6
AUSGEZOGEN
 10
1136.5000
 20
 661.5000
 11
  55.0000
 21
 180.0000
  0
LINE
  8
420
  6
AUSGEZOGEN
 10
1649.7600
 20
 661.5000
 11
1136.5000
 21
 661.5000
  0
LINE
  8
420
  6
AUSGEZOGEN
 10
  55.0000
 20
 180.0000
 11
  55.0000
 21
 255.0000
  0
LINE
  8
420
  6
AUSGEZOGEN
 10
  55.0000
 20
 105.0000
 11
  55.0000
 21
 180.0000
  0
LINE
  8
420
  6
AUSGEZOGEN
 10
 130.0000
 20
 180.0000
 11
  55.0000
 21
 180.0000
  0
LINE
  8
420
  6
AUSGEZOGEN
 10
 -20.0000
 20
 180.0000
 11
  55.0000
 21
 180.0000
  0
CIRCLE
  8
420
  6
AUSGEZOGEN
 10
  55.0000
 20
 180.0000
 40
  50.0000
  0
TEXT
  8
420
 10
1150.0000
 20
 555.0000
 40
  40.5000
  1
A: DN20   (OKFF 225mm)
 50
   0.0000
 41
   0.8000
  7
STANDARD
  0
LINE
  8
420
  6
AUSGEZOGEN
 10
1136.5000
 20
 541.5000
 11
  60.0000
 21
 225.0000
  0
LINE
  8
420
  6
AUSGEZOGEN
 10
1663.2000
 20
 541.5000
 11
1136.5000
 21
 541.5000
  0
LINE
  8
420
  6
AUSGEZOGEN
 10
  60.0000
 20
 225.0000
 11
  60.0000
 21
 300.0000
  0
LINE
  8
420
  6
AUSGEZOGEN
 10
  60.0000
 20
 150.0000
 11
  60.0000
 21
 225.0000
  0
LINE
  8
420
  6
AUSGEZOGEN
 10
 135.0000
 20
 225.0000
 11
  60.0000
 21
 225.0000
  0
LINE
  8
420
  6
AUSGEZOGEN
 10
 -15.0000
 20
 225.0000
 11
  60.0000
 21
 225.0000
  0
CIRCLE
  8
420
  6
AUSGEZOGEN
 10
  60.0000
 20
 225.0000
 40
  50.0000
  0
LINE
  8
200
  6
AUSGEZOGEN
 10
 900.0000
 20
 535.0000
 11
 325.0000
 21
 535.0000
  0
LINE
  8
200
  6
AUSGEZOGEN
 10
 325.0000
 20
 608.0000
 11
 900.0000
 21
 608.0000
  0
LINE
  8
200
  6
AUSGEZOGEN
 10
 900.0000
 20
 130.0000
 11
 900.0000
 21
 890.0000
  0
LINE
  8
200
  6
AUSGEZOGEN
 10
 325.0000
 20
 890.0000
 11
 325.0000
 21
 130.0000
  0
LINE
  8
200
  6
AUSGEZOGEN
 10
 122.0000
 20
 501.0000
 11
 122.0000
 21
 581.0000
  0
LINE
  8
200
  6
AUSGEZOGEN
 10
 202.0000
 20
 501.0000
 11
 122.0000
 21
 501.0000
  0
LINE
  8
200
  6
AUSGEZOGEN
 10
 202.0000
 20
 581.0000
 11
 202.0000
 21
 501.0000
  0
LINE
  8
200
  6
AUSGEZOGEN
 10
 122.0000
 20
 581.0000
 11
 202.0000
 21
 581.0000
  0
LINE
  8
200
  6
AUSGEZOGEN
 10
 295.0000
 20
 363.0000
 11
  30.0000
 21
 363.0000
  0
LINE
  8
200
  6
AUSGEZOGEN
 10
  30.0000
 20
 338.0000
 11
 295.0000
 21
 338.0000
  0
LINE
  8
200
  6
AUSGEZOGEN
 10
 295.0000
 20
 314.0000
 11
  30.0000
 21
 314.0000
  0
LINE
  8
200
  6
AUSGEZOGEN
 10
  30.0000
 20
 289.0000
 11
 295.0000
 21
 289.0000
  0
LINE
  8
200
  6
AUSGEZOGEN
 10
 295.0000
 20
 265.0000
 11
  30.0000
 21
 265.0000
  0
LINE
  8
200
  6
AUSGEZOGEN
 10
  30.0000
 20
 240.0000
 11
 295.0000
 21
 240.0000
  0
LINE
  8
200
  6
AUSGEZOGEN
 10
 295.0000
 20
 216.0000
 11
  30.0000
 21
 216.0000
  0
LINE
  8
200
  6
AUSGEZOGEN
 10
  30.0000
 20
 191.0000
 11
 295.0000
 21
 191.0000
  0
LINE
  8
200
  6
AUSGEZOGEN
 10
 295.0000
 20
 167.0000
 11
  30.0000
 21
 167.0000
  0
LINE
  8
200
  6
AUSGEZOGEN
 10
  30.0000
 20
 142.0000
 11
 295.0000
 21
 142.0000
  0
LINE
  8
200
  6
AUSGEZOGEN
 10
 920.0000
 20
 621.0000
 11
   0.0000
 21
 621.0000
  0
LINE
  8
200
  6
AUSGEZOGEN
 10
 305.0000
 20
 130.0000
 11
 305.0000
 21
 890.0000
  0
LINE
  8
200
  6
AUSGEZOGEN
 10
 920.0000
 20
 890.0000
 11
   0.0000
 21
 890.0000
  0
LINE
  8
200
  6
AUSGEZOGEN
 10
  20.0000
 20
 130.0000
 11
  20.0000
 21
 890.0000
  0
LINE
  8
200
  6
AUSGEZOGEN
 10
   0.0000
 20
 915.0000
 11
   0.0000
 21
 130.0000
  0
LINE
  8
200
  6
AUSGEZOGEN
 10
 920.0000
 20
 915.0000
 11
   0.0000
 21
 915.0000
  0
LINE
  8
200
  6
AUSGEZOGEN
 10
 920.0000
 20
 130.0000
 11
 920.0000
 21
 915.0000
  0
LINE
  8
200
  6
AUSGEZOGEN
 10
  50.0000
 20
   0.0000
 11
  50.0000
 21
 130.0000
  0
LINE
  8
200
  6
AUSGEZOGEN
 10
  92.0000
 20
 130.0000
 11
  92.0000
 21
   0.0000
  0
LINE
  8
200
  6
AUSGEZOGEN
 10
  50.0000
 20
   0.0000
 11
  92.0000
 21
   0.0000
  0
LINE
  8
200
  6
AUSGEZOGEN
 10
 828.0000
 20
 130.0000
 11
 828.0000
 21
   0.0000
  0
LINE
  8
200
  6
AUSGEZOGEN
 10
   0.0000
 20
 130.0000
 11
 920.0000
 21
 130.0000
  0
LINE
  8
200
  6
AUSGEZOGEN
 10
 870.0000
 20
   0.0000
 11
 870.0000
 21
 130.0000
  0
LINE
  8
200
  6
AUSGEZOGEN
 10
 828.0000
 20
   0.0000
 11
 870.0000
 21
   0.0000
  0
ATTDEF
  8
550
 10
10.0
 20
100.0
 30
0.0
 40
30
  1
NOR-41321650702
  2
NO00059V
  3
HKI-Nummer
 70
1
  0
TEXT
  8
510
 10
10.0
 20
-45.0
 30
0.0
 40
30
  1
NOR-41321650702
 50
0.0
 41
1.0
  7
STANDARD
  0
ENDSEC
  0
EOF
