  0
SECTION
  2
HEADER
  9
$ACADVER
  1
AC1015
  9
$ACADMAINTVER
 70
     6
  9
$DWGCODEPAGE
  3
ANSI_1252
  9
$INSBASE
 10
0.0
 20
0.0
 30
0.0
  9
$EXTMIN
 10
0.0
 20
0.0
 30
0.0
  9
$EXTMAX
 10
594.0
 20
420.0
 30
0.0
  9
$LIMMIN
 10
0.0
 20
0.0
  9
$LIMMAX
 10
594.0
 20
420.0
  9
$ORTHOMODE
 70
     0
  9
$REGENMODE
 70
     1
  9
$FILLMODE
 70
     1
  9
$QTEXTMODE
 70
     0
  9
$MIRRTEXT
 70
     1
  9
$LTSCALE
 40
1.0
  9
$ATTMODE
 70
     1
  9
$TEXTSIZE
 40
2.5
  9
$TRACEWID
 40
1.0
  9
$TEXTSTYLE
  7
Standard
  9
$CLAYER
  8
0
  9
$CELTYPE
  6
ByLayer
  9
$CECOLOR
 62
   256
  9
$CELTSCALE
 40
1.0
  9
$DISPSILH
 70
     0
  9
$DIMSCALE
 40
1.0
  9
$DIMASZ
 40
2.5
  9
$DIMEXO
 40
0.625
  9
$DIMDLI
 40
3.75
  9
$DIMRND
 40
0.0
  9
$DIMDLE
 40
0.0
  9
$DIMEXE
 40
1.25
  9
$DIMTP
 40
0.0
  9
$DIMTM
 40
0.0
  9
$DIMTXT
 40
2.5
  9
$DIMCEN
 40
2.5
  9
$DIMTSZ
 40
0.0
  9
$DIMTOL
 70
     0
  9
$DIMLIM
 70
     0
  9
$DIMTIH
 70
     0
  9
$DIMTOH
 70
     0
  9
$DIMSE1
 70
     0
  9
$DIMSE2
 70
     0
  9
$DIMTAD
 70
     1
  9
$DIMZIN
 70
     8
  9
$DIMBLK
  1

  9
$DIMASO
 70
     1
  9
$DIMSHO
 70
     1
  9
$DIMPOST
  1

  9
$DIMAPOST
  1

  9
$DIMALT
 70
     0
  9
$DIMALTD
 70
     3
  9
$DIMALTF
 40
0.0393700787
  9
$DIMLFAC
 40
1.0
  9
$DIMTOFL
 70
     1
  9
$DIMTVP
 40
0.0
  9
$DIMTIX
 70
     0
  9
$DIMSOXD
 70
     0
  9
$DIMSAH
 70
     0
  9
$DIMBLK1
  1

  9
$DIMBLK2
  1

  9
$DIMSTYLE
  2
ISO-25
  9
$DIMCLRD
 70
     0
  9
$DIMCLRE
 70
     0
  9
$DIMCLRT
 70
     0
  9
$DIMTFAC
 40
1.0
  9
$DIMGAP
 40
0.625
  9
$DIMJUST
 70
     0
  9
$DIMSD1
 70
     0
  9
$DIMSD2
 70
     0
  9
$DIMTOLJ
 70
     0
  9
$DIMTZIN
 70
     8
  9
$DIMALTZ
 70
     0
  9
$DIMALTTZ
 70
     0
  9
$DIMUPT
 70
     0
  9
$DIMDEC
 70
     2
  9
$DIMTDEC
 70
     2
  9
$DIMALTU
 70
     2
  9
$DIMALTTD
 70
     3
  9
$DIMTXSTY
  7
Standard
  9
$DIMAUNIT
 70
     0
  9
$DIMADEC
 70
     0
  9
$DIMALTRND
 40
0.0
  9
$DIMAZIN
 70
     0
  9
$DIMDSEP
 70
    44
  9
$DIMATFIT
 70
     3
  9
$DIMFRAC
 70
     0
  9
$DIMLDRBLK
  1

  9
$DIMLUNIT
 70
     2
  9
$DIMLWD
 70
    -2
  9
$DIMLWE
 70
    -2
  9
$DIMTMOVE
 70
     0
  9
$LUNITS
 70
     2
  9
$LUPREC
 70
     4
  9
$SKETCHINC
 40
1.0
  9
$FILLETRAD
 40
10.0
  9
$AUNITS
 70
     0
  9
$AUPREC
 70
     0
  9
$MENU
  1
.
  9
$ELEVATION
 40
0.0
  9
$PELEVATION
 40
0.0
  9
$THICKNESS
 40
0.0
  9
$LIMCHECK
 70
     0
  9
$CHAMFERA
 40
10.0
  9
$CHAMFERB
 40
10.0
  9
$CHAMFERC
 40
20.0
  9
$CHAMFERD
 40
0.0
  9
$SKPOLY
 70
     0
  9
$TDCREATE
 40
2457071.518906401
  9
$TDUCREATE
 40
2457071.477239734
  9
$TDUPDATE
 40
2457071.518908206
  9
$TDUUPDATE
 40
2457071.477241539
  9
$TDINDWG
 40
0.0000000116
  9
$TDUSRTIMER
 40
0.0000000116
  9
$USRTIMER
 70
     1
  9
$ANGBASE
 50
0.0
  9
$ANGDIR
 70
     0
  9
$PDMODE
 70
     0
  9
$PDSIZE
 40
0.0
  9
$PLINEWID
 40
0.0
  9
$SPLFRAME
 70
     0
  9
$SPLINETYPE
 70
     6
  9
$SPLINESEGS
 70
     8
  9
$HANDSEED
  5
FA
  9
$SURFTAB1
 70
     6
  9
$SURFTAB2
 70
     6
  9
$SURFTYPE
 70
     6
  9
$SURFU
 70
     6
  9
$SURFV
 70
     6
  9
$UCSBASE
  2

  9
$UCSNAME
  2

  9
$UCSORG
 10
0.0
 20
0.0
 30
0.0
  9
$UCSXDIR
 10
1.0
 20
0.0
 30
0.0
  9
$UCSYDIR
 10
0.0
 20
1.0
 30
0.0
  9
$UCSORTHOREF
  2

  9
$UCSORTHOVIEW
 70
     0
  9
$UCSORGTOP
 10
0.0
 20
0.0
 30
0.0
  9
$UCSORGBOTTOM
 10
0.0
 20
0.0
 30
0.0
  9
$UCSORGLEFT
 10
0.0
 20
0.0
 30
0.0
  9
$UCSORGRIGHT
 10
0.0
 20
0.0
 30
0.0
  9
$UCSORGFRONT
 10
0.0
 20
0.0
 30
0.0
  9
$UCSORGBACK
 10
0.0
 20
0.0
 30
0.0
  9
$PUCSBASE
  2

  9
$PUCSNAME
  2

  9
$PUCSORG
 10
0.0
 20
0.0
 30
0.0
  9
$PUCSXDIR
 10
1.0
 20
0.0
 30
0.0
  9
$PUCSYDIR
 10
0.0
 20
1.0
 30
0.0
  9
$PUCSORTHOREF
  2

  9
$PUCSORTHOVIEW
 70
     0
  9
$PUCSORGTOP
 10
0.0
 20
0.0
 30
0.0
  9
$PUCSORGBOTTOM
 10
0.0
 20
0.0
 30
0.0
  9
$PUCSORGLEFT
 10
0.0
 20
0.0
 30
0.0
  9
$PUCSORGRIGHT
 10
0.0
 20
0.0
 30
0.0
  9
$PUCSORGFRONT
 10
0.0
 20
0.0
 30
0.0
  9
$PUCSORGBACK
 10
0.0
 20
0.0
 30
0.0
  9
$USERI1
 70
     0
  9
$USERI2
 70
     0
  9
$USERI3
 70
     0
  9
$USERI4
 70
     0
  9
$USERI5
 70
     0
  9
$USERR1
 40
0.0
  9
$USERR2
 40
0.0
  9
$USERR3
 40
0.0
  9
$USERR4
 40
0.0
  9
$USERR5
 40
0.0
  9
$WORLDVIEW
 70
     1
  9
$SHADEDGE
 70
     3
  9
$SHADEDIF
 70
    70
  9
$TILEMODE
 70
     1
  9
$MAXACTVP
 70
    64
  9
$PINSBASE
 10
0.0
 20
0.0
 30
0.0
  9
$PLIMCHECK
 70
     0
  9
$PEXTMIN
 10
0.0
 20
0.0
 30
0.0
  9
$PEXTMAX
 10
594.0
 20
420.0
 30
0.0
  9
$PLIMMIN
 10
0.0
 20
0.0
  9
$PLIMMAX
 10
594.0
 20
420.0
  9
$UNITMODE
 70
     0
  9
$VISRETAIN
 70
     1
  9
$PLINEGEN
 70
     0
  9
$PSLTSCALE
 70
     1
  9
$TREEDEPTH
 70
  3020
  9
$CMLSTYLE
  2
Standard
  9
$CMLJUST
 70
     0
  9
$CMLSCALE
 40
20.0
  9
$PROXYGRAPHICS
 70
     1
  9
$MEASUREMENT
 70
     1
  9
$CELWEIGHT
370
    -1
  9
$ENDCAPS
280
     0
  9
$JOINSTYLE
280
     0
  9
$LWDISPLAY
290
     0
  9
$INSUNITS
 70
     4
  9
$HYPERLINKBASE
  1

  9
$STYLESHEET
  1

  9
$XEDIT
290
     1
  9
$CEPSNTYPE
380
     0
  9
$PSTYLEMODE
290
     1
  9
$FINGERPRINTGUID
  2
{938EB20D-864A-4FC5-80B4-7C38547730A4}
  9
$VERSIONGUID
  2
{FAEB1C32-E019-11D5-929B-00C0DF256EC4}
  9
$EXTNAMES
290
     1
  9
$PSVPSCALE
 40
0.0
  9
$OLESTARTUP
290
     0
  0
ENDSEC
  0
SECTION
  2
CLASSES
  0
CLASS
  1
ACDBDICTIONARYWDFLT
  2
AcDbDictionaryWithDefault
  3
ObjectDBX Classes
 90
        0
280
     0
281
     0
  0
CLASS
  1
VISUALSTYLE
  2
AcDbVisualStyle
  3
ObjectDBX Classes
 90
     4095
280
     0
281
     0
  0
CLASS
  1
MATERIAL
  2
AcDbMaterial
  3
ObjectDBX Classes
 90
     1153
280
     0
281
     0
  0
CLASS
  1
DICTIONARYVAR
  2
AcDbDictionaryVar
  3
ObjectDBX Classes
 90
        0
280
     0
281
     0
  0
CLASS
  1
ACDBPLACEHOLDER
  2
AcDbPlaceHolder
  3
ObjectDBX Classes
 90
        0
280
     0
281
     0
  0
CLASS
  1
LAYOUT
  2
AcDbLayout
  3
ObjectDBX Classes
 90
        0
280
     0
281
     0
  0
ENDSEC
  0
SECTION
  2
TABLES
  0
TABLE
  2
VPORT
  5
8
330
0
100
AcDbSymbolTable
 70
     1
  0
VPORT
  5
29
330
8
100
AcDbSymbolTableRecord
100
AcDbViewportTableRecord
  2
*Active
 70
     0
 10
0.0
 20
0.0
 11
1.0
 21
1.0
 12
344.1869158879
 22
148.5
 13
0.0
 23
0.0
 14
10.0
 24
10.0
 15
10.0
 25
10.0
 16
0.0
 26
0.0
 36
1.0
 17
0.0
 27
0.0
 37
0.0
 40
297.0
 41
1.9729729729
 42
50.0
 43
0.0
 44
0.0
 50
0.0
 51
0.0
 71
     0
 72
   100
 73
     1
 74
     3
 75
     0
 76
     0
 77
     0
 78
     0
281
     0
 65
     1
110
0.0
120
0.0
130
0.0
111
1.0
121
0.0
131
0.0
112
0.0
122
1.0
132
0.0
 79
     0
146
0.0
  0
ENDTAB
  0
TABLE
  2
LTYPE
  5
5
330
0
100
AcDbSymbolTable
 70
     1
  0
LTYPE
  5
14
330
5
100
AcDbSymbolTableRecord
100
AcDbLinetypeTableRecord
  2
ByBlock
 70
     0
  3

 72
    65
 73
     0
 40
0.0
  0
LTYPE
  5
15
330
5
100
AcDbSymbolTableRecord
100
AcDbLinetypeTableRecord
  2
ByLayer
 70
     0
  3

 72
    65
 73
     0
 40
0.0
  0
LTYPE
  5
16
330
5
100
AcDbSymbolTableRecord
100
AcDbLinetypeTableRecord
  2
Continuous
 70
     0
  3
Solid line
 72
    65
 73
     0
 40
0.0
  0
ENDTAB
  0
TABLE
  2
LAYER
  5
2
330
0
100
AcDbSymbolTable
 70
     2
  0
LAYER
  5
10
330
2
100
AcDbSymbolTableRecord
100
AcDbLayerTableRecord
  2
0
 70
     0
 62
     7
  6
Continuous
370
    -3
390
F
  0
LAYER
  5
3F
330
2
100
AcDbSymbolTableRecord
100
AcDbLayerTableRecord
  2
Predefinito
 70
     0
 62
     7
  6
Continuous
370
    -3
390
F
  0
ENDTAB
  0
TABLE
  2
STYLE
  5
3
330
0
100
AcDbSymbolTable
 70
     2
  0
STYLE
  5
11
330
3
100
AcDbSymbolTableRecord
100
AcDbTextStyleTableRecord
  2
Standard
 70
     0
 40
0.0
 41
1.0
 50
0.0
 71
     0
 42
2.5
  3
txt
  4

  0
STYLE
  5
C3
330
3
100
AcDbSymbolTableRecord
100
AcDbTextStyleTableRecord
  2
SEACAD_arial_ttf
 70
     0
 40
0.0
 41
1.0
 50
0.0
 71
     0
 42
0.2
  3

  4

1001
ACAD
1000
arial.ttf
1071
        0
  0
ENDTAB
  0
TABLE
  2
VIEW
  5
6
330
0
100
AcDbSymbolTable
 70
     0
  0
ENDTAB
  0
TABLE
  2
UCS
  5
7
330
0
100
AcDbSymbolTable
 70
     0
  0
ENDTAB
  0
TABLE
  2
APPID
  5
9
330
0
100
AcDbSymbolTable
 70
     1
  0
APPID
  5
12
330
9
100
AcDbSymbolTableRecord
100
AcDbRegAppTableRecord
  2
ACAD
 70
     0
  0
ENDTAB
  0
TABLE
  2
DIMSTYLE
  5
A
330
0
100
AcDbSymbolTable
 70
     1
100
AcDbDimStyleTable
  0
DIMSTYLE
105
27
330
A
100
AcDbSymbolTableRecord
100
AcDbDimStyleTableRecord
  2
ISO-25
 70
     0
 41
2.5
 42
0.625
 43
3.75
 44
1.25
 73
     0
 74
     0
 77
     1
 78
     8
140
2.5
141
2.5
143
0.0393700787
147
0.625
171
     3
172
     1
178
     0
271
     2
272
     2
274
     3
278
    44
283
     0
284
     8
340
11
  0
ENDTAB
  0
TABLE
  2
BLOCK_RECORD
  5
1
330
0
100
AcDbSymbolTable
 70
     1
  0
BLOCK_RECORD
  5
1F
330
1
100
AcDbSymbolTableRecord
100
AcDbBlockTableRecord
  2
*Model_Space
340
22
  0
BLOCK_RECORD
  5
1B
330
1
100
AcDbSymbolTableRecord
100
AcDbBlockTableRecord
  2
*Paper_Space
340
1E
  0
ENDTAB
  0
ENDSEC
  0
SECTION
  2
BLOCKS
  0
BLOCK
  5
20
330
1F
100
AcDbEntity
  8
0
100
AcDbBlockBegin
  2
*Model_Space
 70
     0
 10
0.0
 20
0.0
 30
0.0
  3
*Model_Space
  1

  0
ENDBLK
  5
21
330
1F
100
AcDbEntity
  8
0
100
AcDbBlockEnd
  0
BLOCK
  5
1C
330
1B
100
AcDbEntity
 67
     1
  8
0
100
AcDbBlockBegin
  2
*Paper_Space
 70
     0
 10
0.0
 20
0.0
 30
0.0
  3
*Paper_Space
  1

  0
ENDBLK
  5
1D
330
1B
100
AcDbEntity
 67
     1
  8
0
100
AcDbBlockEnd
  0
ENDSEC
  0
SECTION
  2
ENTITIES
  0
LINE
  5
40
330
1F
100
AcDbEntity
  8
Predefinito
  6
Continuous
 62
     7
100
AcDbLine
 10
54.5363629394
 20
1054.6155454319
 30
0.0
 11
479.3630109213
 21
1054.6155454319
 31
0.0
  0
LINE
  5
41
330
1F
100
AcDbEntity
  8
Predefinito
  6
Continuous
 62
     7
100
AcDbLine
 10
479.3630109213
 20
1054.6155454319
 30
0.0
 11
479.3630109213
 21
317.1513124991
 31
0.0
  0
LINE
  5
42
330
1F
100
AcDbEntity
  8
Predefinito
  6
Continuous
 62
     7
100
AcDbLine
 10
479.3630109213
 20
317.1513124991
 30
0.0
 11
54.5363629394
 21
317.1513124991
 31
0.0
  0
LINE
  5
43
330
1F
100
AcDbEntity
  8
Predefinito
  6
Continuous
 62
     7
100
AcDbLine
 10
54.5363629394
 20
1054.6155454319
 30
0.0
 11
54.5363629394
 21
317.1513124991
 31
0.0
  0
LINE
  5
44
330
1F
100
AcDbEntity
  8
Predefinito
  6
Continuous
 62
     7
100
AcDbLine
 10
221.1349735714
 20
532.063463454
 30
0.0
 11
310.6793570853
 21
532.063463454
 31
0.0
  0
LINE
  5
45
330
1F
100
AcDbEntity
  8
Predefinito
  6
Continuous
 62
     7
100
AcDbLine
 10
310.6793570853
 20
532.063463454
 30
0.0
 11
310.6793570853
 21
562.8083161627
 31
0.0
  0
LINE
  5
46
330
1F
100
AcDbEntity
  8
Predefinito
  6
Continuous
 62
     7
100
AcDbLine
 10
310.6793570853
 20
562.8083161627
 30
0.0
 11
221.1349735714
 21
562.8083161627
 31
0.0
  0
LINE
  5
47
330
1F
100
AcDbEntity
  8
Predefinito
  6
Continuous
 62
     7
100
AcDbLine
 10
221.1349735714
 20
562.8083161627
 30
0.0
 11
221.1349735714
 21
532.063463454
 31
0.0
  0
CIRCLE
  5
48
330
1F
100
AcDbEntity
  8
Predefinito
  6
Continuous
 62
     7
100
AcDbCircle
 10
136.5866286227
 20
430.9897601744
 30
0.0
 40
13.11732842945857
  0
CIRCLE
  5
49
330
1F
100
AcDbEntity
  8
Predefinito
  6
Continuous
 62
     7
100
AcDbCircle
 10
377.5494117266
 20
527.0674248889
 30
0.0
 40
5.227190092649288
  0
CIRCLE
  5
4A
330
1F
100
AcDbEntity
  8
Predefinito
  6
Continuous
 62
     7
100
AcDbCircle
 10
266.8679419755
 20
587.0198876707
 30
0.0
 40
4.627713146275678
  0
CIRCLE
  5
4B
330
1F
100
AcDbEntity
  8
Predefinito
  6
Continuous
 62
     7
100
AcDbCircle
 10
90.8536602186
 20
582.0238491056
 30
0.0
 40
5.010797943143569
  0
LINE
  5
4C
330
1F
100
AcDbEntity
  8
Predefinito
  6
Continuous
 62
     7
100
AcDbLine
 10
220.1741969243
 20
417.9231977732
 30
0.0
 11
309.7185804382
 21
417.9231977732
 31
0.0
  0
LINE
  5
4D
330
1F
100
AcDbEntity
  8
Predefinito
  6
Continuous
 62
     7
100
AcDbLine
 10
309.7185804382
 20
417.9231977732
 30
0.0
 11
309.7185804382
 21
448.6680504819
 31
0.0
  0
LINE
  5
4E
330
1F
100
AcDbEntity
  8
Predefinito
  6
Continuous
 62
     7
100
AcDbLine
 10
309.7185804382
 20
448.6680504819
 30
0.0
 11
220.1741969243
 21
448.6680504819
 31
0.0
  0
LINE
  5
4F
330
1F
100
AcDbEntity
  8
Predefinito
  6
Continuous
 62
     7
100
AcDbLine
 10
220.1741969243
 20
448.6680504819
 30
0.0
 11
220.1741969243
 21
417.9231977732
 31
0.0
  0
CIRCLE
  5
50
330
1F
100
AcDbEntity
  8
Predefinito
  6
Continuous
 62
     7
100
AcDbCircle
 10
265.9071653284
 20
472.8796219899
 30
0.0
 40
4.627713146275678
  0
CIRCLE
  5
51
330
1F
100
AcDbEntity
  8
Predefinito
  6
Continuous
 62
     7
100
AcDbCircle
 10
398.3021873049
 20
430.9897601744
 30
0.0
 40
13.11732842945857
  0
LINE
  5
52
330
1F
100
AcDbEntity
  8
Predefinito
  6
Continuous
 62
     7
100
AcDbLine
 10
372.1690625026
 20
551.2789963969
 30
0.0
 11
382.1611396329
 21
551.2789963969
 31
0.0
  0
LINE
  5
53
330
1F
100
AcDbEntity
  8
Predefinito
  6
Continuous
 62
     7
100
AcDbLine
 10
382.1611396329
 20
551.2789963969
 30
0.0
 11
382.1611396329
 21
567.420044069
 31
0.0
  0
LINE
  5
54
330
1F
100
AcDbEntity
  8
Predefinito
  6
Continuous
 62
     7
100
AcDbLine
 10
382.1611396329
 20
567.420044069
 30
0.0
 11
372.1690625026
 21
567.420044069
 31
0.0
  0
LINE
  5
55
330
1F
100
AcDbEntity
  8
Predefinito
  6
Continuous
 62
     7
100
AcDbLine
 10
372.1690625026
 20
567.420044069
 30
0.0
 11
372.1690625026
 21
551.2789963969
 31
0.0
  0
LINE
  5
56
330
1F
100
AcDbEntity
  8
Predefinito
  6
Continuous
 62
     7
100
AcDbLine
 10
131.2062793987
 20
536.6751913603
 30
0.0
 11
180.3980437325
 21
536.6751913603
 31
0.0
  0
LINE
  5
57
330
1F
100
AcDbEntity
  8
Predefinito
  6
Continuous
 62
     7
100
AcDbLine
 10
180.3980437325
 20
536.6751913603
 30
0.0
 11
180.3980437325
 21
584.7140237176
 31
0.0
  0
LINE
  5
58
330
1F
100
AcDbEntity
  8
Predefinito
  6
Continuous
 62
     7
100
AcDbLine
 10
180.3980437325
 20
584.7140237176
 30
0.0
 11
131.2062793987
 21
584.7140237176
 31
0.0
  0
LINE
  5
59
330
1F
100
AcDbEntity
  8
Predefinito
  6
Continuous
 62
     7
100
AcDbLine
 10
131.2062793987
 20
584.7140237176
 30
0.0
 11
131.2062793987
 21
536.6751913603
 31
0.0
  0
LINE
  5
5A
330
1F
100
AcDbEntity
  8
Predefinito
  6
Continuous
 62
     7
100
AcDbLine
 10
151.1904336593
 20
540.1339872901
 30
0.0
 11
158.4923361776
 21
540.1339872901
 31
0.0
  0
LINE
  5
5B
330
1F
100
AcDbEntity
  8
Predefinito
  6
Continuous
 62
     7
100
AcDbLine
 10
158.4923361776
 20
540.1339872901
 30
0.0
 11
158.4923361776
 21
579.3336744936
 31
0.0
  0
LINE
  5
5C
330
1F
100
AcDbEntity
  8
Predefinito
  6
Continuous
 62
     7
100
AcDbLine
 10
158.4923361776
 20
579.3336744936
 30
0.0
 11
151.1904336593
 21
579.3336744936
 31
0.0
  0
LINE
  5
5D
330
1F
100
AcDbEntity
  8
Predefinito
  6
Continuous
 62
     7
100
AcDbLine
 10
151.1904336593
 20
579.3336744936
 30
0.0
 11
151.1904336593
 21
540.1339872901
 31
0.0
  0
CIRCLE
  5
5E
330
1F
100
AcDbEntity
  8
Predefinito
  6
Continuous
 62
     7
100
AcDbCircle
 10
154.8413849184
 20
559.7338308918
 30
0.0
 40
10.77578818362154
  0
CIRCLE
  5
5F
330
1F
100
AcDbEntity
  8
Predefinito
  6
Continuous
 62
     7
100
AcDbCircle
 10
90.8536602186
 20
413.9305362323
 30
0.0
 40
5.010797943143569
  0
CIRCLE
  5
60
330
1F
100
AcDbEntity
  8
Predefinito
  6
Continuous
 62
     7
100
AcDbCircle
 10
442.5785295712
 20
582.0238491056
 30
0.0
 40
5.010797943143569
  0
CIRCLE
  5
61
330
1F
100
AcDbEntity
  8
Predefinito
  6
Continuous
 62
     7
100
AcDbCircle
 10
442.5785295712
 20
413.9305362323
 30
0.0
 40
5.010797943143569
  0
LINE
  5
62
330
1F
100
AcDbEntity
  8
Predefinito
  6
Continuous
 62
     7
100
AcDbLine
 10
54.5363629394
 20
648.1931424367
 30
0.0
 11
479.3630109213
 21
648.1931424367
 31
0.0
  0
LINE
  5
63
330
1F
100
AcDbEntity
  8
Predefinito
  6
Continuous
 62
     7
100
AcDbLine
 10
54.5363629394
 20
648.1931424367
 30
0.0
 11
85.3073302985
 21
617.4221750776
 31
0.0
  0
LINE
  5
64
330
1F
100
AcDbEntity
  8
Predefinito
  6
Continuous
 62
     7
100
AcDbLine
 10
85.3073302985
 20
617.4221750776
 30
0.0
 11
448.5920435621
 21
617.4221750776
 31
0.0
  0
LINE
  5
65
330
1F
100
AcDbEntity
  8
Predefinito
  6
Continuous
 62
     7
100
AcDbLine
 10
479.3630109213
 20
648.1931424367
 30
0.0
 11
448.5920435621
 21
617.4221750776
 31
0.0
  0
LINE
  5
66
330
1F
100
AcDbEntity
  8
Predefinito
  6
Continuous
 62
     7
100
AcDbLine
 10
85.3073302985
 20
617.4221750776
 30
0.0
 11
85.3073302985
 21
317.1513124991
 31
0.0
  0
LINE
  5
67
330
1F
100
AcDbEntity
  8
Predefinito
  6
Continuous
 62
     7
100
AcDbLine
 10
448.5920435621
 20
617.4221750776
 30
0.0
 11
448.5920435621
 21
317.1513124991
 31
0.0
  0
LINE
  5
68
330
1F
100
AcDbEntity
  8
Predefinito
  6
Continuous
 62
     7
100
AcDbLine
 10
59.4717835844
 20
317.1513124991
 30
0.0
 11
51.0674459942
 21
304.5901438351
 31
0.0
  0
LINE
  5
69
330
1F
100
AcDbEntity
  8
Predefinito
  6
Continuous
 62
     7
100
AcDbLine
 10
51.0674459942
 20
304.5901438351
 30
0.0
 11
91.5569873698
 21
304.5901438351
 31
0.0
  0
LINE
  5
6A
330
1F
100
AcDbEntity
  8
Predefinito
  6
Continuous
 62
     7
100
AcDbLine
 10
91.5569873698
 20
304.5901438351
 30
0.0
 11
82.4685757897
 21
317.1513124991
 31
0.0
  0
LINE
  5
6B
330
1F
100
AcDbEntity
  8
Predefinito
  6
Continuous
 62
     7
100
AcDbLine
 10
474.4275902762
 20
317.1513124991
 30
0.0
 11
482.8319278664
 21
304.5901438351
 31
0.0
  0
LINE
  5
6C
330
1F
100
AcDbEntity
  8
Predefinito
  6
Continuous
 62
     7
100
AcDbLine
 10
482.8319278664
 20
304.5901438351
 30
0.0
 11
442.3423864909
 21
304.5901438351
 31
0.0
  0
LINE
  5
6D
330
1F
100
AcDbEntity
  8
Predefinito
  6
Continuous
 62
     7
100
AcDbLine
 10
442.3423864909
 20
304.5901438351
 30
0.0
 11
451.4307980709
 21
317.1513124991
 31
0.0
  0
LINE
  5
6E
330
1F
100
AcDbEntity
  8
Predefinito
  6
Continuous
 62
     7
100
AcDbLine
 10
86.9064372539
 20
648.1931424367
 30
0.0
 11
86.9064372539
 21
1022.2454711174
 31
0.0
  0
LINE
  5
6F
330
1F
100
AcDbEntity
  8
Predefinito
  6
Continuous
 62
     7
100
AcDbLine
 10
54.5363629394
 20
1054.6155454319
 30
0.0
 11
86.9064372539
 21
1022.2454711174
 31
0.0
  0
LINE
  5
70
330
1F
100
AcDbEntity
  8
Predefinito
  6
Continuous
 62
     7
100
AcDbLine
 10
446.9929366067
 20
648.1931424367
 30
0.0
 11
446.9929366067
 21
1022.2454711174
 31
0.0
  0
LINE
  5
71
330
1F
100
AcDbEntity
  8
Predefinito
  6
Continuous
 62
     7
100
AcDbLine
 10
479.3630109213
 20
1054.6155454319
 30
0.0
 11
446.9929366067
 21
1022.2454711174
 31
0.0
  0
LINE
  5
72
330
1F
100
AcDbEntity
  8
Predefinito
  6
Continuous
 62
     7
100
AcDbLine
 10
220.6852199962
 20
648.1931424367
 30
0.0
 11
220.6852199962
 21
698.1195381707
 31
0.0
  0
LINE
  5
73
330
1F
100
AcDbEntity
  8
Predefinito
  6
Continuous
 62
     7
100
AcDbLine
 10
220.6852199962
 20
698.1195381707
 30
0.0
 11
238.8006511819
 21
737.9734867791
 31
0.0
  0
LINE
  5
74
330
1F
100
AcDbEntity
  8
Predefinito
  6
Continuous
 62
     7
100
AcDbLine
 10
238.8006511819
 20
737.9734867791
 30
0.0
 11
245.3222064087
 21
737.9734867791
 31
0.0
  0
LINE
  5
75
330
1F
100
AcDbEntity
  8
Predefinito
  6
Continuous
 62
     7
100
AcDbLine
 10
245.3222064087
 20
737.9734867791
 30
0.0
 11
245.3222064087
 21
801.0151873051
 31
0.0
  0
LINE
  5
76
330
1F
100
AcDbEntity
  8
Predefinito
  6
Continuous
 62
     7
100
AcDbLine
 10
245.3222064087
 20
801.0151873051
 30
0.0
 11
228.6560097179
 21
801.0151873051
 31
0.0
  0
LINE
  5
77
330
1F
100
AcDbEntity
  8
Predefinito
  6
Continuous
 62
     7
100
AcDbLine
 10
228.6560097179
 20
801.0151873051
 30
0.0
 11
228.6560097179
 21
832.8983461918
 31
0.0
  0
LINE
  5
78
330
1F
100
AcDbEntity
  8
Predefinito
  6
Continuous
 62
     7
100
AcDbLine
 10
228.6560097179
 20
832.8983461918
 30
0.0
 11
136.6296192949
 21
832.8983461918
 31
0.0
  0
LINE
  5
79
330
1F
100
AcDbEntity
  8
Predefinito
  6
Continuous
 62
     7
100
AcDbLine
 10
136.6296192949
 20
832.8983461918
 30
0.0
 11
136.6296192949
 21
842.3183704083
 31
0.0
  0
LINE
  5
7A
330
1F
100
AcDbEntity
  8
Predefinito
  6
Continuous
 62
     7
100
AcDbLine
 10
136.6296192949
 20
842.3183704083
 30
0.0
 11
142.7865463806
 21
842.3183704083
 31
0.0
  0
LINE
  5
7B
330
1F
100
AcDbEntity
  8
Predefinito
  6
Continuous
 62
     7
100
AcDbLine
 10
142.7865463806
 20
842.3183704083
 30
0.0
 11
142.7865463806
 21
865.1192268173
 31
0.0
  0
LINE
  5
7C
330
1F
100
AcDbEntity
  8
Predefinito
  6
Continuous
 62
     7
100
AcDbLine
 10
142.7865463806
 20
865.1192268173
 30
0.0
 11
98.869731029
 21
865.1192268173
 31
0.0
  0
LINE
  5
7D
330
1F
100
AcDbEntity
  8
Predefinito
  6
Continuous
 62
     7
100
AcDbLine
 10
98.869731029
 20
865.1192268173
 30
0.0
 11
98.869731029
 21
895.3518170956
 31
0.0
  0
LINE
  5
7E
330
1F
100
AcDbEntity
  8
Predefinito
  6
Continuous
 62
     7
100
AcDbLine
 10
313.2141538644
 20
648.1931424367
 30
0.0
 11
313.2141538644
 21
698.1195381707
 31
0.0
  0
LINE
  5
7F
330
1F
100
AcDbEntity
  8
Predefinito
  6
Continuous
 62
     7
100
AcDbLine
 10
313.2141538644
 20
698.1195381707
 30
0.0
 11
295.0987226788
 21
737.9734867791
 31
0.0
  0
LINE
  5
80
330
1F
100
AcDbEntity
  8
Predefinito
  6
Continuous
 62
     7
100
AcDbLine
 10
295.0987226788
 20
737.9734867791
 30
0.0
 11
288.5771674519
 21
737.9734867791
 31
0.0
  0
LINE
  5
81
330
1F
100
AcDbEntity
  8
Predefinito
  6
Continuous
 62
     7
100
AcDbLine
 10
288.5771674519
 20
737.9734867791
 30
0.0
 11
288.5771674519
 21
801.0151873051
 31
0.0
  0
LINE
  5
82
330
1F
100
AcDbEntity
  8
Predefinito
  6
Continuous
 62
     7
100
AcDbLine
 10
288.5771674519
 20
801.0151873051
 30
0.0
 11
305.2433641427
 21
801.0151873051
 31
0.0
  0
LINE
  5
83
330
1F
100
AcDbEntity
  8
Predefinito
  6
Continuous
 62
     7
100
AcDbLine
 10
305.2433641427
 20
801.0151873051
 30
0.0
 11
305.2433641427
 21
832.8983461918
 31
0.0
  0
LINE
  5
84
330
1F
100
AcDbEntity
  8
Predefinito
  6
Continuous
 62
     7
100
AcDbLine
 10
305.2433641427
 20
832.8983461918
 30
0.0
 11
397.2697545657
 21
832.8983461918
 31
0.0
  0
LINE
  5
85
330
1F
100
AcDbEntity
  8
Predefinito
  6
Continuous
 62
     7
100
AcDbLine
 10
397.2697545657
 20
832.8983461918
 30
0.0
 11
397.2697545657
 21
842.3183704083
 31
0.0
  0
LINE
  5
86
330
1F
100
AcDbEntity
  8
Predefinito
  6
Continuous
 62
     7
100
AcDbLine
 10
397.2697545657
 20
842.3183704083
 30
0.0
 11
391.11282748
 21
842.3183704083
 31
0.0
  0
LINE
  5
87
330
1F
100
AcDbEntity
  8
Predefinito
  6
Continuous
 62
     7
100
AcDbLine
 10
391.11282748
 20
842.3183704083
 30
0.0
 11
391.11282748
 21
865.1192268173
 31
0.0
  0
LINE
  5
88
330
1F
100
AcDbEntity
  8
Predefinito
  6
Continuous
 62
     7
100
AcDbLine
 10
391.11282748
 20
865.1192268173
 30
0.0
 11
435.0296428316
 21
865.1192268173
 31
0.0
  0
LINE
  5
89
330
1F
100
AcDbEntity
  8
Predefinito
  6
Continuous
 62
     7
100
AcDbLine
 10
435.0296428316
 20
865.1192268173
 30
0.0
 11
435.0296428316
 21
895.3518170956
 31
0.0
  0
LINE
  5
8A
330
1F
100
AcDbEntity
  8
Predefinito
  6
Continuous
 62
     7
100
AcDbLine
 10
98.869731029
 20
895.3518170956
 30
0.0
 11
435.0296428316
 21
895.3518170956
 31
0.0
  0
LINE
  5
8B
330
1F
100
AcDbEntity
  8
Predefinito
  6
Continuous
 62
     7
100
AcDbLine
 10
159.0178857624
 20
865.1192268173
 30
0.0
 11
159.0178857624
 21
842.3183704083
 31
0.0
  0
LINE
  5
8C
330
1F
100
AcDbEntity
  8
Predefinito
  6
Continuous
 62
     7
100
AcDbLine
 10
374.8814880982
 20
865.1192268173
 30
0.0
 11
374.8814880982
 21
842.3183704083
 31
0.0
  0
LINE
  5
8D
330
1F
100
AcDbEntity
  8
Predefinito
  6
Continuous
 62
     7
100
AcDbLine
 10
159.0178857624
 20
865.1192268173
 30
0.0
 11
374.8814880982
 21
865.1192268173
 31
0.0
  0
LINE
  5
8E
330
1F
100
AcDbEntity
  8
Predefinito
  6
Continuous
 62
     7
100
AcDbLine
 10
374.8814880982
 20
842.3183704083
 30
0.0
 11
159.0178857624
 21
842.3183704083
 31
0.0
  0
LINE
  5
8F
330
1F
100
AcDbEntity
  8
Predefinito
  6
Continuous
 62
     7
100
AcDbLine
 10
220.6852199962
 20
698.1195381707
 30
0.0
 11
313.2141538644
 21
698.1195381707
 31
0.0
  0
LINE
  5
90
330
1F
100
AcDbEntity
  8
Predefinito
  6
Continuous
 62
     7
100
AcDbLine
 10
245.3222064087
 20
737.9734867791
 30
0.0
 11
288.5771674519
 21
737.9734867791
 31
0.0
  0
LINE
  5
91
330
1F
100
AcDbEntity
  8
Predefinito
  6
Continuous
 62
     7
100
AcDbLine
 10
257.3225097535
 20
865.1192268173
 30
0.0
 11
238.8006511819
 21
842.3183704083
 31
0.0
  0
LINE
  5
92
330
1F
100
AcDbEntity
  8
Predefinito
  6
Continuous
 62
     7
100
AcDbLine
 10
276.5768641071
 20
865.1192268173
 30
0.0
 11
295.0987226788
 21
842.3183704083
 31
0.0
  0
LINE
  5
93
330
1F
100
AcDbEntity
  8
Predefinito
  6
Continuous
 62
     7
100
AcDbLine
 10
245.3222064087
 20
801.0151873051
 30
0.0
 11
288.5771674519
 21
801.0151873051
 31
0.0
  0
LINE
  5
94
330
1F
100
AcDbEntity
  8
Predefinito
  6
Continuous
 62
     7
100
AcDbLine
 10
223.9446606775
 20
816.9567667484
 30
0.0
 11
191.0240424107
 21
801.0151873051
 31
0.0
  0
SPLINE
  5
95
330
1F
100
AcDbEntity
  8
Predefinito
  6
Continuous
 62
     7
100
AcDbSpline
210
0.0
220
0.0
230
1.0
 70
     8
 71
     3
 72
    13
 73
     9
 74
     0
 42
0.0000000001633451
 43
0.0000000001
 12
1.0
 22
0.0
 32
0.0
 13
1.0
 23
0.0
 33
0.0
 40
0.0
 40
0.0
 40
0.0
 40
0.0
 40
0.228389358597121
 40
0.3994753157990875
 40
0.5220983485654095
 40
0.6036659766358095
 40
0.8326372198921748
 40
1.0
 40
1.0
 40
1.0
 40
1.0
 10
191.0240424106779
 20
801.0151873050618
 30
0.0
 10
186.4457184097461
 20
802.0519147821226
 30
0.0
 10
178.7430930116052
 20
802.9810372793597
 30
0.0
 10
171.0087682681103
 20
795.8021209490776
 30
0.0
 10
169.4872637233622
 20
787.539349429398
 30
0.0
 10
177.0548552434483
 20
782.8134292857117
 30
0.0
 10
187.2801168541842
 20
784.0305525722075
 30
0.0
 10
192.0685940659374
 20
789.3452789729715
 30
0.0
 10
194.2246580755029
 20
792.0256552539826
 30
0.0
  0
LINE
  5
96
330
1F
100
AcDbEntity
  8
Predefinito
  6
Continuous
 62
     7
100
AcDbLine
 10
194.2246580755
 20
792.025655254
 30
0.0
 11
228.6560097179
 21
810.7721184337
 31
0.0
  0
LINE
  5
97
330
1F
100
AcDbEntity
  8
Predefinito
  6
Continuous
 62
     7
100
AcDbLine
 10
309.9547131832
 20
816.9567667484
 30
0.0
 11
342.87533145
 21
801.0151873051
 31
0.0
  0
SPLINE
  5
98
330
1F
100
AcDbEntity
  8
Predefinito
  6
Continuous
 62
     7
100
AcDbSpline
210
0.0
220
0.0
230
1.0
 70
     8
 71
     3
 72
    13
 73
     9
 74
     0
 42
0.0000000001633451
 43
0.0000000001
 12
1.0
 22
0.0
 32
0.0
 13
1.0
 23
0.0
 33
0.0
 40
0.0
 40
0.0
 40
0.0
 40
0.0
 40
0.228389358597121
 40
0.3994753157990875
 40
0.5220983485654095
 40
0.6036659766358095
 40
0.8326372198921748
 40
1.0
 40
1.0
 40
1.0
 40
1.0
 10
342.8753314499511
 20
801.0151873050618
 30
0.0
 10
347.4536554508829
 20
802.0519147821226
 30
0.0
 10
355.1562808490239
 20
802.9810372793597
 30
0.0
 10
362.8906055925187
 20
795.8021209490776
 30
0.0
 10
364.4121101372673
 20
787.539349429398
 30
0.0
 10
356.8445186171807
 20
782.8134292857117
 30
0.0
 10
346.6192570064448
 20
784.0305525722075
 30
0.0
 10
341.830779794692
 20
789.3452789729715
 30
0.0
 10
339.6747157851261
 20
792.0256552539826
 30
0.0
  0
LINE
  5
99
330
1F
100
AcDbEntity
  8
Predefinito
  6
Continuous
 62
     7
100
AcDbLine
 10
339.6747157851
 20
792.025655254
 30
0.0
 11
305.2433641427
 21
810.7721184337
 31
0.0
  0
LINE
  5
9A
330
1F
100
AcDbEntity
  8
Predefinito
  6
Continuous
 62
     7
100
AcDbLine
 10
263.7424581338
 20
816.6492723445
 30
0.0
 11
266.9496869303
 21
798.5124502438
 31
0.0
  0
SPLINE
  5
9B
330
1F
100
AcDbEntity
  8
Predefinito
  6
Continuous
 62
     7
100
AcDbSpline
210
0.0
220
0.0
230
1.0
 70
     8
 71
     3
 72
    13
 73
     9
 74
     0
 42
0.0000000001963837
 43
0.0000000001
 12
1.0
 22
0.0
 32
0.0
 13
1.0
 23
0.0
 33
0.0
 40
0.0
 40
0.0
 40
0.0
 40
0.0
 40
0.1431350532486252
 40
0.2945184227435
 40
0.5243520823974542
 40
0.7550565628258088
 40
0.9243083152525571
 40
1.0
 40
1.0
 40
1.0
 40
1.0
 10
266.9496869303145
 20
798.5124502438455
 30
0.0
 10
265.5306269393332
 20
796.823122724469
 30
0.0
 10
263.2673309750182
 20
793.7855118181647
 30
0.0
 10
262.3414376234179
 20
784.9916848107237
 30
0.0
 10
274.1120372553454
 20
782.3661836433298
 30
0.0
 10
280.0474457242561
 20
789.6791248572692
 30
0.0
 10
279.9092056826813
 20
799.2038707431585
 30
0.0
 10
276.0240395820859
 20
798.7367286381268
 30
0.0
 10
274.879103283346
 20
798.5124502438455
 30
0.0
  0
LINE
  5
9C
330
1F
100
AcDbEntity
  8
Predefinito
  6
Continuous
 62
     7
100
AcDbLine
 10
274.8791032833
 20
798.5124502438
 30
0.0
 11
272.333584392
 21
816.6492723445
 31
0.0
  0
ARC
  5
9D
330
1F
100
AcDbEntity
  8
Predefinito
  6
Continuous
 62
     7
100
AcDbCircle
 10
266.9496869303
 20
-1391.1122712272
 30
0.0
 40
2327.497810229504
100
AcDbArc
 50
85.5634613653
 51
94.4365386347
  0
ARC
  5
9E
330
1F
100
AcDbEntity
  8
Predefinito
  6
Continuous
 62
     7
100
AcDbCircle
 10
266.9496869303
 20
-1381.1900922392
 30
0.0
 40
2327.497810229504
100
AcDbArc
 50
85.5634613653
 51
94.4365386347
  0
ARC
  5
9F
330
1F
100
AcDbEntity
  8
Predefinito
  6
Continuous
 62
     7
100
AcDbCircle
 10
266.9496869303
 20
-1371.2679132512
 30
0.0
 40
2327.497810229504
100
AcDbArc
 50
85.5634613653
 51
94.4365386347
  0
ARC
  5
A0
330
1F
100
AcDbEntity
  8
Predefinito
  6
Continuous
 62
     7
100
AcDbCircle
 10
266.9496869303
 20
-1361.3457342632
 30
0.0
 40
2327.497810229504
100
AcDbArc
 50
85.5634613653
 51
94.4365386347
  0
ARC
  5
A1
330
1F
100
AcDbEntity
  8
Predefinito
  6
Continuous
 62
     7
100
AcDbCircle
 10
266.9496869303
 20
-1351.4235552752
 30
0.0
 40
2327.497810229504
100
AcDbArc
 50
85.5634613653
 51
94.4365386347
  0
ARC
  5
A2
330
1F
100
AcDbEntity
  8
Predefinito
  6
Continuous
 62
     7
100
AcDbCircle
 10
266.9496869303
 20
-1341.5013762872
 30
0.0
 40
2327.497810229504
100
AcDbArc
 50
85.5634613653
 51
94.4365386347
  0
ARC
  5
A3
330
1F
100
AcDbEntity
  8
Predefinito
  6
Continuous
 62
     7
100
AcDbCircle
 10
266.9496869303
 20
-1331.5791972992
 30
0.0
 40
2327.497810229504
100
AcDbArc
 50
85.5634613653
 51
86.7185370694
  0
LINE
  5
A4
330
1F
100
AcDbEntity
  8
Predefinito
  6
Continuous
 62
     7
100
AcDbLine
 10
712.9383049277
 20
1054.6155454319
 30
0.0
 11
712.9383049277
 21
317.1513124991
 31
0.0
  0
LINE
  5
A5
330
1F
100
AcDbEntity
  8
Predefinito
  6
Continuous
 62
     7
100
AcDbLine
 10
712.9383049277
 20
317.1513124991
 30
0.0
 11
733.8182201225
 21
317.1513124991
 31
0.0
  0
LINE
  5
A6
330
1F
100
AcDbEntity
  8
Predefinito
  6
Continuous
 62
     7
100
AcDbLine
 10
712.9383049277
 20
317.1513124991
 30
0.0
 11
1253.0003377903
 21
317.1513124991
 31
0.0
  0
LINE
  5
A7
330
1F
100
AcDbEntity
  8
Predefinito
  6
Continuous
 62
     7
100
AcDbLine
 10
1176.5224687466
 20
646.1476361848
 30
0.0
 11
1130.6814850004
 21
646.1476361848
 31
0.0
  0
LINE
  5
A8
330
1F
100
AcDbEntity
  8
Predefinito
  6
Continuous
 62
     7
100
AcDbLine
 10
1130.6814850004
 20
646.1476361848
 30
0.0
 11
1130.6814850004
 21
1054.6155454319
 31
0.0
  0
LINE
  5
A9
330
1F
100
AcDbEntity
  8
Predefinito
  6
Continuous
 62
     7
100
AcDbLine
 10
712.9383049277
 20
1054.6155454319
 30
0.0
 11
1130.6814850004
 21
1054.6155454319
 31
0.0
  0
LINE
  5
AA
330
1F
100
AcDbEntity
  8
Predefinito
  6
Continuous
 62
     7
100
AcDbLine
 10
1130.6814850004
 20
646.1476361848
 30
0.0
 11
712.9383049277
 21
646.1476361848
 31
0.0
  0
CIRCLE
  5
AB
330
1F
100
AcDbEntity
  8
Predefinito
  6
Continuous
 62
     7
100
AcDbCircle
 10
808.9888612451
 20
978.7656698035
 30
0.0
 40
7.283606575592169
  0
CIRCLE
  5
AC
330
1F
100
AcDbEntity
  8
Predefinito
  6
Continuous
 62
     7
100
AcDbCircle
 10
1096.691320981
 20
978.7656698035
 30
0.0
 40
7.283606575592169
  0
CIRCLE
  5
AD
330
1F
100
AcDbEntity
  8
Predefinito
  6
Continuous
 62
     7
100
AcDbCircle
 10
1096.691320981
 20
667.9984559115
 30
0.0
 40
7.283606575592169
  0
LINE
  5
AE
330
1F
100
AcDbEntity
  8
Predefinito
  6
Continuous
 62
     7
100
AcDbLine
 10
1130.6814850004
 20
986.1518623872
 30
0.0
 11
1221.5897858511
 21
991.3495534646
 31
0.0
  0
LINE
  5
AF
330
1F
100
AcDbEntity
  8
Predefinito
  6
Continuous
 62
     7
100
AcDbLine
 10
1221.5897858511
 20
991.3495534646
 30
0.0
 11
1224.7883428236
 21
935.4063711535
 31
0.0
  0
LINE
  5
B0
330
1F
100
AcDbEntity
  8
Predefinito
  6
Continuous
 62
     7
100
AcDbLine
 10
1224.7883428236
 20
935.4063711535
 30
0.0
 11
1130.6814850004
 21
930.0258022654
 31
0.0
  0
LINE
  5
B1
330
1F
100
AcDbEntity
  8
Predefinito
  6
Continuous
 62
     7
100
AcDbLine
 10
1130.6814850004
 20
895.1922685323
 30
0.0
 11
1212.818682158
 21
895.1922685323
 31
0.0
  0
LINE
  5
B2
330
1F
100
AcDbEntity
  8
Predefinito
  6
Continuous
 62
     7
100
AcDbLine
 10
1212.818682158
 20
895.1922685323
 30
0.0
 11
1212.818682158
 21
863.3564106832
 31
0.0
  0
LINE
  5
B3
330
1F
100
AcDbEntity
  8
Predefinito
  6
Continuous
 62
     7
100
AcDbLine
 10
1212.818682158
 20
863.3564106832
 30
0.0
 11
1130.6814850004
 21
863.3564106832
 31
0.0
  0
LINE
  5
B4
330
1F
100
AcDbEntity
  8
Predefinito
  6
Continuous
 62
     7
100
AcDbLine
 10
1130.6814850004
 20
976.2296833992
 30
0.0
 11
1221.5897858511
 21
981.4273744766
 31
0.0
  0
LINE
  5
B5
330
1F
100
AcDbEntity
  8
Predefinito
  6
Continuous
 62
     7
100
AcDbLine
 10
1130.6814850004
 20
966.3075044112
 30
0.0
 11
1221.5897858511
 21
971.5051954886
 31
0.0
  0
LINE
  5
B6
330
1F
100
AcDbEntity
  8
Predefinito
  6
Continuous
 62
     7
100
AcDbLine
 10
1130.6814850004
 20
956.3853254232
 30
0.0
 11
1221.5897858511
 21
961.5830165006
 31
0.0
  0
LINE
  5
B7
330
1F
100
AcDbEntity
  8
Predefinito
  6
Continuous
 62
     7
100
AcDbLine
 10
1130.6814850004
 20
946.4631464352
 30
0.0
 11
1221.5897858511
 21
951.6608375126
 31
0.0
  0
LINE
  5
B8
330
1F
100
AcDbEntity
  8
Predefinito
  6
Continuous
 62
     7
100
AcDbLine
 10
1130.6814850004
 20
936.5409674472
 30
0.0
 11
1221.5897858511
 21
941.7386585246
 31
0.0
  0
SPLINE
  5
B9
330
1F
100
AcDbEntity
  8
Predefinito
  6
Continuous
 62
     7
100
AcDbSpline
210
0.0
220
0.0
230
1.0
 70
     8
 71
     3
 72
    17
 73
    13
 74
     0
 42
0.0000000001369336
 43
0.0000000001
 12
1.0
 22
0.0
 32
0.0
 13
1.0
 23
0.0
 33
0.0
 40
0.0
 40
0.0
 40
0.0
 40
0.0
 40
0.1135793153624384
 40
0.2323632361140641
 40
0.3905573932997443
 40
0.4804924648764175
 40
0.5454307882163517
 40
0.6432808356367699
 40
0.745822594103024
 40
0.9392129382796924
 40
0.9717352845253054
 40
1.0
 40
1.0
 40
1.0
 40
1.0
 10
1130.681485000385
 20
803.1221924377958
 30
0.0
 10
1132.833870559491
 20
801.4747102352246
 30
0.0
 10
1136.927148851838
 20
798.2171483989533
 30
0.0
 10
1145.960347499754
 20
801.4537969532643
 30
0.0
 10
1152.958912154846
 20
797.9100638259685
 30
0.0
 10
1159.441049632787
 20
792.395115552268
 30
0.0
 10
1155.288135137291
 20
787.328674837395
 30
0.0
 10
1150.574256107271
 20
784.5255548953163
 30
0.0
 10
1140.782189717931
 20
783.7244751878862
 30
0.0
 10
1138.189594589256
 20
792.978990004683
 30
0.0
 10
1132.582613169481
 20
794.3041786405776
 30
0.0
 10
1131.354918936472
 20
794.2619542118409
 30
0.0
 10
1130.681485000385
 20
794.223571775692
 30
0.0
  0
LINE
  5
BA
330
1F
100
AcDbEntity
  8
Predefinito
  6
Continuous
 62
     7
100
AcDbLine
 10
1169.653000457
 20
317.1513124991
 30
0.0
 11
1178.0573380472
 21
304.5901438351
 31
0.0
  0
LINE
  5
BB
330
1F
100
AcDbEntity
  8
Predefinito
  6
Continuous
 62
     7
100
AcDbLine
 10
1178.0573380472
 20
304.5901438351
 30
0.0
 11
1137.5677966717
 21
304.5901438351
 31
0.0
  0
LINE
  5
BC
330
1F
100
AcDbEntity
  8
Predefinito
  6
Continuous
 62
     7
100
AcDbLine
 10
1137.5677966717
 20
304.5901438351
 30
0.0
 11
1146.6562082517
 21
317.1513124991
 31
0.0
  0
LINE
  5
BD
330
1F
100
AcDbEntity
  8
Predefinito
  6
Continuous
 62
     7
100
AcDbLine
 10
784.1994398957
 20
317.1513124991
 30
0.0
 11
792.6037774859
 21
304.5901438351
 31
0.0
  0
LINE
  5
BE
330
1F
100
AcDbEntity
  8
Predefinito
  6
Continuous
 62
     7
100
AcDbLine
 10
792.6037774859
 20
304.5901438351
 30
0.0
 11
752.1142361103
 21
304.5901438351
 31
0.0
  0
LINE
  5
BF
330
1F
100
AcDbEntity
  8
Predefinito
  6
Continuous
 62
     7
100
AcDbLine
 10
752.1142361103
 20
304.5901438351
 30
0.0
 11
761.2026476904
 21
317.1513124991
 31
0.0
  0
LINE
  5
C0
330
1F
100
AcDbEntity
  8
Predefinito
  6
Continuous
 62
     7
100
AcDbLine
 10
446.9929366067
 20
992.1024201027
 30
0.0
 11
86.9064372539
 21
992.1024201027
 31
0.0
  0
ARC
  5
C1
330
1F
100
AcDbEntity
  8
Predefinito
  6
Continuous
 62
     7
100
AcDbCircle
 10
266.9496869303
 20
-1331.5791972992
 30
0.0
 40
2327.497810229504
100
AcDbArc
 50
93.2814629306
 51
94.4365386347
  0
LINE
  5
C2
330
1F
100
AcDbEntity
  8
Predefinito
  6
Continuous
 62
     7
100
AcDbLine
 10
1253.0003377903
 20
317.1513124991
 30
0.0
 11
1176.5224687466
 21
646.1476361848
 31
0.0
  0
TEXT
  5
C4
330
1F
100
AcDbEntity
  8
Predefinito
  6
Continuous
 62
     7
100
AcDbText
 10
479.729714133
 20
1636.4594234558
 30
0.0
 40
200.0
  1
iP33
  7
SEACAD_arial_ttf
 11
479.729714133
 21
1836.4594234558
 31
0.0
100
AcDbText
 73
     3
  0
LINE
  5
C5
330
1F
100
AcDbEntity
  8
Predefinito
  6
Continuous
 62
     7
100
AcDbLine
 10
54.5363629394
 20
99.1064459363
 30
0.0
 11
54.5363629394
 21
-440.8935540637
 31
0.0
  0
LINE
  5
C6
330
1F
100
AcDbEntity
  8
Predefinito
  6
Continuous
 62
     7
100
AcDbLine
 10
479.3630109213
 20
-440.8935540637
 30
0.0
 11
479.3630109213
 21
99.1064459363
 31
0.0
  0
LINE
  5
C7
330
1F
100
AcDbEntity
  8
Predefinito
  6
Continuous
 62
     7
100
AcDbLine
 10
479.3630109213
 20
99.1064459363
 30
0.0
 11
54.5363629394
 21
99.1064459363
 31
0.0
  0
LINE
  5
C8
330
1F
100
AcDbEntity
  8
Predefinito
  6
Continuous
 62
     7
100
AcDbLine
 10
225.4037820204
 20
-440.8935540637
 30
0.0
 11
54.5363629394
 21
-440.8935540637
 31
0.0
  0
LINE
  5
C9
330
1F
100
AcDbEntity
  8
Predefinito
  6
Continuous
 62
     7
100
AcDbLine
 10
54.5363629394
 20
-440.8935540637
 30
0.0
 11
479.3630109213
 21
-440.8935540637
 31
0.0
  0
LINE
  5
CA
330
1F
100
AcDbEntity
  8
Predefinito
  6
Continuous
 62
     7
100
AcDbLine
 10
54.5363629394
 20
99.1064459363
 30
0.0
 11
54.5363629394
 21
-363.8935540637
 31
0.0
  0
LINE
  5
CB
330
1F
100
AcDbEntity
  8
Predefinito
  6
Continuous
 62
     7
100
AcDbLine
 10
54.5363629394
 20
-363.8935540637
 30
0.0
 11
479.3630109213
 21
-363.8935540637
 31
0.0
  0
ARC
  5
CC
330
1F
100
AcDbEntity
  8
Predefinito
  6
Continuous
 62
     7
100
AcDbCircle
 10
266.9496869303
 20
-232.8598365167
 30
0.0
 40
168.0
100
AcDbArc
 50
231.2571516281
 51
308.7428483719
  0
ENDSEC
  0
SECTION
  2
OBJECTS
  0
DICTIONARY
  5
C
330
0
100
AcDbDictionary
281
     1
  3
ACAD_GROUP
350
D
  3
ACAD_LAYOUT
350
1A
  3
ACAD_MATERIAL
350
3B
  3
ACAD_MLEADERSTYLE
350
CF
  3
ACAD_MLINESTYLE
350
17
  3
ACAD_PLOTSETTINGS
350
19
  3
ACAD_PLOTSTYLENAME
350
E
  3
ACAD_VISUALSTYLE
350
2A
  3
AcDbVariableDictionary
350
CD
  0
DICTIONARY
  5
D
102
{ACAD_REACTORS
330
C
102
}
330
C
100
AcDbDictionary
281
     1
  0
DICTIONARY
  5
1A
102
{ACAD_REACTORS
330
C
102
}
330
C
100
AcDbDictionary
281
     1
  3
Layout1
350
1E
  3
Model
350
22
  0
DICTIONARY
  5
3B
102
{ACAD_REACTORS
330
C
102
}
330
C
100
AcDbDictionary
281
     1
  3
ByBlock
350
3D
  3
ByLayer
350
3C
  3
Global
350
3E
  0
DICTIONARY
  5
CF
102
{ACAD_REACTORS
330
C
102
}
330
C
100
AcDbDictionary
281
     1
  0
DICTIONARY
  5
17
102
{ACAD_REACTORS
330
C
102
}
330
C
100
AcDbDictionary
281
     1
  3
Standard
350
18
  0
DICTIONARY
  5
19
102
{ACAD_REACTORS
330
C
102
}
330
C
100
AcDbDictionary
281
     1
  0
ACDBDICTIONARYWDFLT
  5
E
102
{ACAD_REACTORS
330
C
102
}
330
C
100
AcDbDictionary
281
     1
  3
Normal
350
F
100
AcDbDictionaryWithDefault
340
F
  0
DICTIONARY
  5
2A
102
{ACAD_REACTORS
330
C
102
}
330
C
100
AcDbDictionary
281
     1
  3
2dWireframe
350
2F
  3
3D Hidden
350
31
  3
3dWireframe
350
30
  3
Basic
350
32
  3
Brighten
350
36
  3
ColorChange
350
3A
  3
Conceptual
350
34
  3
Dim
350
35
  3
Facepattern
350
39
  3
Flat
350
2B
  3
FlatWithEdges
350
2C
  3
Gouraud
350
2D
  3
GouraudWithEdges
350
2E
  3
Linepattern
350
38
  3
Realistic
350
33
  3
Thicken
350
37
  0
DICTIONARY
  5
CD
102
{ACAD_REACTORS
330
C
102
}
330
C
100
AcDbDictionary
281
     1
  3
DIMASSOC
350
D2
  3
HIDETEXT
350
D3
  3
PSOLHEIGHT
350
D1
  3
PSOLWIDTH
350
D0
  0
LAYOUT
  5
1E
102
{ACAD_REACTORS
330
1A
102
}
330
1A
100
AcDbPlotSettings
  1

  2
none_device
  4

  6

 40
0.0
 41
0.0
 42
0.0
 43
0.0
 44
0.0
 45
0.0
 46
0.0
 47
0.0
 48
0.0
 49
0.0
140
0.0
141
0.0
142
1.0
143
1.0
 70
   688
 72
     0
 73
     0
 74
     5
  7

 75
    16
147
1.0
148
0.0
149
0.0
100
AcDbLayout
  1
Layout1
 70
     1
 71
     1
 10
0.0
 20
0.0
 11
594.0
 21
420.0
 12
0.0
 22
0.0
 32
0.0
 14
0.0
 24
0.0
 34
0.0
 15
594.0
 25
420.0
 35
0.0
146
0.0
 13
0.0
 23
0.0
 33
0.0
 16
1.0
 26
0.0
 36
0.0
 17
0.0
 27
1.0
 37
0.0
 76
     0
330
1B
  0
LAYOUT
  5
22
102
{ACAD_REACTORS
330
1A
102
}
330
1A
100
AcDbPlotSettings
  1

  2
none_device
  4

  6

 40
0.0
 41
0.0
 42
0.0
 43
0.0
 44
0.0
 45
0.0
 46
0.0
 47
0.0
 48
0.0
 49
0.0
140
0.0
141
0.0
142
1.0
143
1.0
 70
  1712
 72
     0
 73
     0
 74
     0
  7

 75
     0
147
1.0
148
0.0
149
0.0
100
AcDbLayout
  1
Model
 70
     1
 71
     0
 10
0.0
 20
0.0
 11
594.0
 21
420.0
 12
0.0
 22
0.0
 32
0.0
 14
0.0
 24
0.0
 34
0.0
 15
594.0
 25
420.0
 35
0.0
146
0.0
 13
0.0
 23
0.0
 33
0.0
 16
1.0
 26
0.0
 36
0.0
 17
0.0
 27
1.0
 37
0.0
 76
     0
330
1F
331
29
  0
MATERIAL
  5
3D
102
{ACAD_REACTORS
330
3B
102
}
102
{ACAD_XDICTIONARY
360
F6
102
}
330
3B
100
AcDbMaterial
  1
ByBlock
  0
MATERIAL
  5
3C
102
{ACAD_REACTORS
330
3B
102
}
102
{ACAD_XDICTIONARY
360
F4
102
}
330
3B
100
AcDbMaterial
  1
ByLayer
  0
MATERIAL
  5
3E
102
{ACAD_REACTORS
330
3B
102
}
102
{ACAD_XDICTIONARY
360
F8
102
}
330
3B
100
AcDbMaterial
  1
Global
  0
MLINESTYLE
  5
18
102
{ACAD_REACTORS
330
17
102
}
330
17
100
AcDbMlineStyle
  2
Standard
 70
     0
  3

 62
   256
 51
90.0
 52
90.0
 71
     2
 49
0.5
 62
   256
  6
BYLAYER
 49
-0.5
 62
   256
  6
BYLAYER
  0
ACDBPLACEHOLDER
  5
F
102
{ACAD_REACTORS
330
E
102
}
330
E
  0
VISUALSTYLE
  5
2F
102
{ACAD_REACTORS
330
2A
102
}
102
{ACAD_XDICTIONARY
360
DC
102
}
330
2A
100
AcDbVisualStyle
  2
2dWireframe
 70
     4
 71
     0
 72
     2
 73
     0
 90
        0
 40
-0.6
 41
-30.0
 62
     5
 63
     7
 74
     1
 91
        4
 64
     7
 65
   257
 75
     1
175
     1
 42
1.0
 92
        0
 66
   257
 43
1.0
 76
     1
 77
     6
 78
     2
 67
     7
 79
     5
170
     0
171
     0
290
     0
174
     0
 93
        1
 44
0.0
173
     0
291
     0
 45
0.0
1001
ACAD
1000
AcDbSavedByObjectVersion
1070
     0
  0
VISUALSTYLE
  5
31
102
{ACAD_REACTORS
330
2A
102
}
102
{ACAD_XDICTIONARY
360
E0
102
}
330
2A
100
AcDbVisualStyle
  2
3D Hidden
 70
     6
 71
     1
 72
     2
 73
     2
 90
        0
 40
-0.6
 41
-30.0
 62
     5
 63
     7
 74
     2
 91
        2
 64
     7
 65
   257
 75
     2
175
     1
 42
40.0
 92
        0
 66
   257
 43
1.0
 76
     1
 77
     6
 78
     2
 67
     7
 79
     3
170
     0
171
     0
290
     0
174
     0
 93
        1
 44
0.0
173
     0
291
     0
 45
0.0
1001
ACAD
1000
AcDbSavedByObjectVersion
1070
     0
  0
VISUALSTYLE
  5
30
102
{ACAD_REACTORS
330
2A
102
}
102
{ACAD_XDICTIONARY
360
DE
102
}
330
2A
100
AcDbVisualStyle
  2
3dWireframe
 70
     5
 71
     0
 72
     2
 73
     0
 90
        0
 40
-0.6
 41
-30.0
 62
     5
 63
     7
 74
     1
 91
        4
 64
     7
 65
   257
 75
     1
175
     1
 42
1.0
 92
        0
 66
   257
 43
1.0
 76
     1
 77
     6
 78
     2
 67
     7
 79
     5
170
     0
171
     0
290
     0
174
     0
 93
        1
 44
0.0
173
     0
291
     0
 45
0.0
1001
ACAD
1000
AcDbSavedByObjectVersion
1070
     0
  0
VISUALSTYLE
  5
32
102
{ACAD_REACTORS
330
2A
102
}
102
{ACAD_XDICTIONARY
360
E2
102
}
330
2A
100
AcDbVisualStyle
  2
Basic
 70
     7
 71
     1
 72
     0
 73
     1
 90
        0
 40
-0.6
 41
-30.0
 62
     5
 63
     7
 74
     0
 91
        4
 64
     7
 65
   257
 75
     1
175
     1
 42
1.0
 92
        8
 66
     7
 43
1.0
 76
     1
 77
     6
 78
     2
 67
     7
 79
     5
170
     0
171
     0
290
     0
174
     0
 93
        1
 44
0.0
173
     0
291
     1
 45
0.0
1001
ACAD
1000
AcDbSavedByObjectVersion
1070
     0
  0
VISUALSTYLE
  5
36
102
{ACAD_REACTORS
330
2A
102
}
102
{ACAD_XDICTIONARY
360
EA
102
}
330
2A
100
AcDbVisualStyle
  2
Brighten
 70
    12
 71
     2
 72
     2
 73
     0
 90
        0
 40
-0.6
 41
-30.0
 62
     5
 63
     7
 74
     1
 91
        4
 64
     7
 65
   257
 75
     1
175
     1
 42
1.0
 92
        8
 66
     7
 43
1.0
 76
     1
 77
     6
 78
     2
 67
     7
 79
     5
170
     0
171
     0
290
     0
174
     0
 93
        1
 44
50.0
173
     0
291
     1
 45
0.0
1001
ACAD
1000
AcDbSavedByObjectVersion
1070
     0
  0
VISUALSTYLE
  5
3A
102
{ACAD_REACTORS
330
2A
102
}
102
{ACAD_XDICTIONARY
360
F2
102
}
330
2A
100
AcDbVisualStyle
  2
ColorChange
 70
    16
 71
     2
 72
     2
 73
     3
 90
        0
 40
-0.6
 41
-30.0
 62
     5
 63
     8
 74
     1
 91
        4
 64
     7
 65
   257
 75
     1
175
     1
 42
1.0
 92
        8
 66
     8
 43
1.0
 76
     1
 77
     6
 78
     2
 67
     7
 79
     5
170
     0
171
     0
290
     0
174
     0
 93
        1
 44
0.0
173
     0
291
     1
 45
0.0
1001
ACAD
1000
AcDbSavedByObjectVersion
1070
     0
  0
VISUALSTYLE
  5
34
102
{ACAD_REACTORS
330
2A
102
}
102
{ACAD_XDICTIONARY
360
E6
102
}
330
2A
100
AcDbVisualStyle
  2
Conceptual
 70
     9
 71
     3
 72
     2
 73
     0
 90
        0
 40
-0.6
 41
-30.0
 62
     5
 63
     7
 74
     2
 91
        2
 64
     7
 65
   257
 75
     1
175
     1
 42
40.0
 92
        8
 66
     7
 43
1.0
 76
     1
 77
     6
 78
     2
 67
     7
 79
     3
170
     0
171
     0
290
     0
174
     0
 93
        1
 44
0.0
173
     0
291
     0
 45
0.0
1001
ACAD
1000
AcDbSavedByObjectVersion
1070
     0
  0
VISUALSTYLE
  5
35
102
{ACAD_REACTORS
330
2A
102
}
102
{ACAD_XDICTIONARY
360
E8
102
}
330
2A
100
AcDbVisualStyle
  2
Dim
 70
    11
 71
     2
 72
     2
 73
     0
 90
        0
 40
-0.6
 41
-30.0
 62
     5
 63
     7
 74
     1
 91
        4
 64
     7
 65
   257
 75
     1
175
     1
 42
1.0
 92
        8
 66
     7
 43
1.0
 76
     1
 77
     6
 78
     2
 67
     7
 79
     5
170
     0
171
     0
290
     0
174
     0
 93
        1
 44
-50.0
173
     0
291
     1
 45
0.0
1001
ACAD
1000
AcDbSavedByObjectVersion
1070
     0
  0
VISUALSTYLE
  5
39
102
{ACAD_REACTORS
330
2A
102
}
102
{ACAD_XDICTIONARY
360
F0
102
}
330
2A
100
AcDbVisualStyle
  2
Facepattern
 70
    15
 71
     2
 72
     2
 73
     0
 90
        0
 40
-0.6
 41
-30.0
 62
     5
 63
     7
 74
     1
 91
        4
 64
     7
 65
   257
 75
     1
175
     1
 42
1.0
 92
        8
 66
     7
 43
1.0
 76
     1
 77
     6
 78
     2
 67
     7
 79
     5
170
     0
171
     0
290
     0
174
     0
 93
        1
 44
0.0
173
     0
291
     1
 45
0.0
1001
ACAD
1000
AcDbSavedByObjectVersion
1070
     0
  0
VISUALSTYLE
  5
2B
102
{ACAD_REACTORS
330
2A
102
}
102
{ACAD_XDICTIONARY
360
D4
102
}
330
2A
100
AcDbVisualStyle
  2
Flat
 70
     0
 71
     2
 72
     1
 73
     1
 90
        2
 40
-0.6
 41
30.0
 62
     5
 63
     7
 74
     0
 91
        4
 64
     7
 65
   257
 75
     1
175
     1
 42
1.0
 92
        8
 66
     7
 43
1.0
 76
     1
 77
     6
 78
     2
 67
     7
 79
     5
170
     0
171
     0
290
     0
174
     0
 93
       13
 44
0.0
173
     0
291
     1
 45
0.0
1001
ACAD
1000
AcDbSavedByObjectVersion
1070
     0
  0
VISUALSTYLE
  5
2C
102
{ACAD_REACTORS
330
2A
102
}
102
{ACAD_XDICTIONARY
360
D6
102
}
330
2A
100
AcDbVisualStyle
  2
FlatWithEdges
 70
     1
 71
     2
 72
     1
 73
     1
 90
        2
 40
-0.6
 41
30.0
 62
     5
 63
     7
 74
     1
 91
        4
 64
     7
 65
   257
 75
     1
175
     1
 42
1.0
 92
        0
 66
   257
 43
1.0
 76
     1
 77
     6
 78
     2
 67
     7
 79
     5
170
     0
171
     0
290
     0
174
     0
 93
       13
 44
0.0
173
     0
291
     1
 45
0.0
1001
ACAD
1000
AcDbSavedByObjectVersion
1070
     0
  0
VISUALSTYLE
  5
2D
102
{ACAD_REACTORS
330
2A
102
}
102
{ACAD_XDICTIONARY
360
D8
102
}
330
2A
100
AcDbVisualStyle
  2
Gouraud
 70
     2
 71
     2
 72
     2
 73
     1
 90
        2
 40
-0.6
 41
30.0
 62
     5
 63
     7
 74
     0
 91
        4
 64
     7
 65
   257
 75
     1
175
     1
 42
1.0
 92
        0
 66
     7
 43
1.0
 76
     1
 77
     6
 78
     2
 67
     7
 79
     5
170
     0
171
     0
290
     0
174
     0
 93
       13
 44
0.0
173
     0
291
     1
 45
0.0
1001
ACAD
1000
AcDbSavedByObjectVersion
1070
     0
  0
VISUALSTYLE
  5
2E
102
{ACAD_REACTORS
330
2A
102
}
102
{ACAD_XDICTIONARY
360
DA
102
}
330
2A
100
AcDbVisualStyle
  2
GouraudWithEdges
 70
     3
 71
     2
 72
     2
 73
     1
 90
        2
 40
-0.6
 41
30.0
 62
     5
 63
     7
 74
     1
 91
        4
 64
     7
 65
   257
 75
     1
175
     1
 42
1.0
 92
        0
 66
   257
 43
1.0
 76
     1
 77
     6
 78
     2
 67
     7
 79
     5
170
     0
171
     0
290
     0
174
     0
 93
       13
 44
0.0
173
     0
291
     1
 45
0.0
1001
ACAD
1000
AcDbSavedByObjectVersion
1070
     0
  0
VISUALSTYLE
  5
38
102
{ACAD_REACTORS
330
2A
102
}
102
{ACAD_XDICTIONARY
360
EE
102
}
330
2A
100
AcDbVisualStyle
  2
Linepattern
 70
    14
 71
     2
 72
     2
 73
     0
 90
        0
 40
-0.6
 41
-30.0
 62
     5
 63
     7
 74
     1
 91
        4
 64
     7
 65
   257
 75
     7
175
     7
 42
1.0
 92
        8
 66
     7
 43
1.0
 76
     1
 77
     6
 78
     2
 67
     7
 79
     5
170
     0
171
     0
290
     0
174
     0
 93
        1
 44
0.0
173
     0
291
     1
 45
0.0
1001
ACAD
1000
AcDbSavedByObjectVersion
1070
     0
  0
VISUALSTYLE
  5
33
102
{ACAD_REACTORS
330
2A
102
}
102
{ACAD_XDICTIONARY
360
E4
102
}
330
2A
100
AcDbVisualStyle
  2
Realistic
 70
     8
 71
     2
 72
     2
 73
     0
 90
        0
 40
-0.6
 41
-30.0
 62
     5
 63
     7
 74
     1
 91
        0
 64
     7
 65
   257
 75
     1
175
     1
 42
1.0
 92
        8
 66
     8
 43
1.0
 76
     1
 77
     6
 78
     2
 67
     7
 79
     5
170
     0
171
     0
290
     0
174
     0
 93
       13
 44
0.0
173
     0
291
     0
 45
0.0
1001
ACAD
1000
AcDbSavedByObjectVersion
1070
     0
  0
VISUALSTYLE
  5
37
102
{ACAD_REACTORS
330
2A
102
}
102
{ACAD_XDICTIONARY
360
EC
102
}
330
2A
100
AcDbVisualStyle
  2
Thicken
 70
    13
 71
     2
 72
     2
 73
     0
 90
        0
 40
-0.6
 41
-30.0
 62
     5
 63
     7
 74
     1
 91
        4
 64
     7
 65
   257
 75
     1
175
     1
 42
1.0
 92
       12
 66
     7
 43
1.0
 76
     1
 77
     6
 78
     2
 67
     7
 79
     5
170
     0
171
     0
290
     0
174
     0
 93
        1
 44
0.0
173
     0
291
     1
 45
0.0
1001
ACAD
1000
AcDbSavedByObjectVersion
1070
     0
  0
DICTIONARYVAR
  5
D2
102
{ACAD_REACTORS
330
CD
102
}
330
CD
100
DictionaryVariables
280
     0
  1
2
  0
DICTIONARYVAR
  5
D3
102
{ACAD_REACTORS
330
CD
102
}
330
CD
100
DictionaryVariables
280
     0
  1
1
  0
DICTIONARYVAR
  5
D1
102
{ACAD_REACTORS
330
CD
102
}
330
CD
100
DictionaryVariables
280
     0
  1
80.000000
  0
DICTIONARYVAR
  5
D0
102
{ACAD_REACTORS
330
CD
102
}
330
CD
100
DictionaryVariables
280
     0
  1
5.000000
  0
DICTIONARY
  5
F6
330
3D
100
AcDbDictionary
280
     1
281
     1
  3
ACAD_XREC_ROUNDTRIP
360
F7
  0
DICTIONARY
  5
F4
330
3C
100
AcDbDictionary
280
     1
281
     1
  3
ACAD_XREC_ROUNDTRIP
360
F5
  0
DICTIONARY
  5
F8
330
3E
100
AcDbDictionary
280
     1
281
     1
  3
ACAD_XREC_ROUNDTRIP
360
F9
  0
DICTIONARY
  5
DC
330
2F
100
AcDbDictionary
280
     1
281
     1
  3
ACAD_XREC_ROUNDTRIP
360
DD
  0
DICTIONARY
  5
E0
330
31
100
AcDbDictionary
280
     1
281
     1
  3
ACAD_XREC_ROUNDTRIP
360
E1
  0
DICTIONARY
  5
DE
330
30
100
AcDbDictionary
280
     1
281
     1
  3
ACAD_XREC_ROUNDTRIP
360
DF
  0
DICTIONARY
  5
E2
330
32
100
AcDbDictionary
280
     1
281
     1
  3
ACAD_XREC_ROUNDTRIP
360
E3
  0
DICTIONARY
  5
EA
330
36
100
AcDbDictionary
280
     1
281
     1
  3
ACAD_XREC_ROUNDTRIP
360
EB
  0
DICTIONARY
  5
F2
330
3A
100
AcDbDictionary
280
     1
281
     1
  3
ACAD_XREC_ROUNDTRIP
360
F3
  0
DICTIONARY
  5
E6
330
34
100
AcDbDictionary
280
     1
281
     1
  3
ACAD_XREC_ROUNDTRIP
360
E7
  0
DICTIONARY
  5
E8
330
35
100
AcDbDictionary
280
     1
281
     1
  3
ACAD_XREC_ROUNDTRIP
360
E9
  0
DICTIONARY
  5
F0
330
39
100
AcDbDictionary
280
     1
281
     1
  3
ACAD_XREC_ROUNDTRIP
360
F1
  0
DICTIONARY
  5
D4
330
2B
100
AcDbDictionary
280
     1
281
     1
  3
ACAD_XREC_ROUNDTRIP
360
D5
  0
DICTIONARY
  5
D6
330
2C
100
AcDbDictionary
280
     1
281
     1
  3
ACAD_XREC_ROUNDTRIP
360
D7
  0
DICTIONARY
  5
D8
330
2D
100
AcDbDictionary
280
     1
281
     1
  3
ACAD_XREC_ROUNDTRIP
360
D9
  0
DICTIONARY
  5
DA
330
2E
100
AcDbDictionary
280
     1
281
     1
  3
ACAD_XREC_ROUNDTRIP
360
DB
  0
DICTIONARY
  5
EE
330
38
100
AcDbDictionary
280
     1
281
     1
  3
ACAD_XREC_ROUNDTRIP
360
EF
  0
DICTIONARY
  5
E4
330
33
100
AcDbDictionary
280
     1
281
     1
  3
ACAD_XREC_ROUNDTRIP
360
E5
  0
DICTIONARY
  5
EC
330
37
100
AcDbDictionary
280
     1
281
     1
  3
ACAD_XREC_ROUNDTRIP
360
ED
  0
XRECORD
  5
F7
102
{ACAD_REACTORS
330
F6
102
}
330
F6
100
AcDbXrecord
280
     1
102
MATERIAL
148
0.0
149
0.0
149
0.0
 93
        0
 94
      127
282
     0
 72
     1
 77
     1
171
     1
175
     1
179
     1
273
     0
  0
XRECORD
  5
F5
102
{ACAD_REACTORS
330
F4
102
}
330
F4
100
AcDbXrecord
280
     1
102
MATERIAL
148
0.0
149
0.0
149
0.0
 93
        0
 94
      127
282
     0
 72
     1
 77
     1
171
     1
175
     1
179
     1
273
     0
  0
XRECORD
  5
F9
102
{ACAD_REACTORS
330
F8
102
}
330
F8
100
AcDbXrecord
280
     1
102
MATERIAL
148
0.0
149
0.0
149
0.0
 93
        0
 94
      127
282
     0
 72
     1
 77
     1
171
     1
175
     1
179
     1
273
     0
  0
XRECORD
  5
DD
102
{ACAD_REACTORS
330
DC
102
}
330
DC
100
AcDbXrecord
280
     1
102
RTVSPropertyOp0
 70
     1
102
RTVSPropertyOp1
 70
     1
102
RTVSPropertyOp2
 70
     1
102
RTVSPropertyOp3
 70
     1
102
RTVSPropertyOp4
 70
     1
102
RTVSPropertyOp5
 70
     1
102
RTVSPropertyOp6
 70
     1
102
RTVSPropertyOp7
 70
     1
102
RTVSPropertyOp8
 70
     1
102
RTVSPropertyOp9
 70
     1
102
RTVSPropertyOp10
 70
     1
102
RTVSPropertyOp11
 70
     1
102
RTVSPropertyOp12
 70
     1
102
RTVSPropertyOp13
 70
     1
102
RTVSPropertyOp14
 70
     1
102
RTVSPropertyOp15
 70
     1
102
RTVSPropertyOp16
 70
     1
102
RTVSPropertyOp17
 70
     1
102
RTVSPropertyOp18
 70
     1
102
RTVSPropertyOp19
 70
     1
102
RTVSPropertyOp20
 70
     1
102
RTVSPropertyOp21
 70
     1
102
RTVSPropertyOp22
 70
     1
102
RTVSPropertyOp23
 70
     1
102
RTVSPropertyOp24
 70
     1
102
RTVSPropertyOp25
 70
     1
102
RTVSPropertyOp26
 70
     1
102
RTVSPropertyOp27
 70
     1
102
RTVSPropertyOp28
 70
     1
102
RTVSPropertyOp29
 70
     1
102
RTVSPropertyOp30
 70
     1
102
RTVSPropertyOp31
 70
     1
102
RTVSPropertyOp32
 70
     1
  0
XRECORD
  5
E1
102
{ACAD_REACTORS
330
E0
102
}
330
E0
100
AcDbXrecord
280
     1
102
RTVSPropertyOp0
 70
     1
102
RTVSPropertyOp1
 70
     1
102
RTVSPropertyOp2
 70
     1
102
RTVSPropertyOp3
 70
     1
102
RTVSPropertyOp4
 70
     1
102
RTVSPropertyOp5
 70
     1
102
RTVSPropertyOp6
 70
     1
102
RTVSPropertyOp7
 70
     1
102
RTVSPropertyOp8
 70
     1
102
RTVSPropertyOp9
 70
     1
102
RTVSPropertyOp10
 70
     1
102
RTVSPropertyOp11
 70
     1
102
RTVSPropertyOp12
 70
     1
102
RTVSPropertyOp13
 70
     1
102
RTVSPropertyOp14
 70
     1
102
RTVSPropertyOp15
 70
     1
102
RTVSPropertyOp16
 70
     1
102
RTVSPropertyOp17
 70
     1
102
RTVSPropertyOp18
 70
     1
102
RTVSPropertyOp19
 70
     1
102
RTVSPropertyOp20
 70
     1
102
RTVSPropertyOp21
 70
     1
102
RTVSPropertyOp22
 70
     1
102
RTVSPropertyOp23
 70
     1
102
RTVSPropertyOp24
 70
     1
102
RTVSPropertyOp25
 70
     1
102
RTVSPropertyOp26
 70
     1
102
RTVSPropertyOp27
 70
     1
102
RTVSPropertyOp28
 70
     1
102
RTVSPropertyOp29
 70
     1
102
RTVSPropertyOp30
 70
     1
102
RTVSPropertyOp31
 70
     1
102
RTVSPropertyOp32
 70
     1
  0
XRECORD
  5
DF
102
{ACAD_REACTORS
330
DE
102
}
330
DE
100
AcDbXrecord
280
     1
102
RTVSPropertyOp0
 70
     1
102
RTVSPropertyOp1
 70
     1
102
RTVSPropertyOp2
 70
     1
102
RTVSPropertyOp3
 70
     1
102
RTVSPropertyOp4
 70
     1
102
RTVSPropertyOp5
 70
     1
102
RTVSPropertyOp6
 70
     1
102
RTVSPropertyOp7
 70
     1
102
RTVSPropertyOp8
 70
     1
102
RTVSPropertyOp9
 70
     1
102
RTVSPropertyOp10
 70
     1
102
RTVSPropertyOp11
 70
     1
102
RTVSPropertyOp12
 70
     1
102
RTVSPropertyOp13
 70
     1
102
RTVSPropertyOp14
 70
     1
102
RTVSPropertyOp15
 70
     1
102
RTVSPropertyOp16
 70
     1
102
RTVSPropertyOp17
 70
     1
102
RTVSPropertyOp18
 70
     1
102
RTVSPropertyOp19
 70
     1
102
RTVSPropertyOp20
 70
     1
102
RTVSPropertyOp21
 70
     1
102
RTVSPropertyOp22
 70
     1
102
RTVSPropertyOp23
 70
     1
102
RTVSPropertyOp24
 70
     1
102
RTVSPropertyOp25
 70
     1
102
RTVSPropertyOp26
 70
     1
102
RTVSPropertyOp27
 70
     1
102
RTVSPropertyOp28
 70
     1
102
RTVSPropertyOp29
 70
     1
102
RTVSPropertyOp30
 70
     1
102
RTVSPropertyOp31
 70
     1
102
RTVSPropertyOp32
 70
     1
  0
XRECORD
  5
E3
102
{ACAD_REACTORS
330
E2
102
}
330
E2
100
AcDbXrecord
280
     1
102
RTVSPropertyOp0
 70
     1
102
RTVSPropertyOp1
 70
     1
102
RTVSPropertyOp2
 70
     1
102
RTVSPropertyOp3
 70
     1
102
RTVSPropertyOp4
 70
     1
102
RTVSPropertyOp5
 70
     1
102
RTVSPropertyOp6
 70
     1
102
RTVSPropertyOp7
 70
     1
102
RTVSPropertyOp8
 70
     1
102
RTVSPropertyOp9
 70
     1
102
RTVSPropertyOp10
 70
     1
102
RTVSPropertyOp11
 70
     1
102
RTVSPropertyOp12
 70
     1
102
RTVSPropertyOp13
 70
     1
102
RTVSPropertyOp14
 70
     1
102
RTVSPropertyOp15
 70
     1
102
RTVSPropertyOp16
 70
     1
102
RTVSPropertyOp17
 70
     1
102
RTVSPropertyOp18
 70
     1
102
RTVSPropertyOp19
 70
     1
102
RTVSPropertyOp20
 70
     1
102
RTVSPropertyOp21
 70
     1
102
RTVSPropertyOp22
 70
     1
102
RTVSPropertyOp23
 70
     1
102
RTVSPropertyOp24
 70
     1
102
RTVSPropertyOp25
 70
     1
102
RTVSPropertyOp26
 70
     1
102
RTVSPropertyOp27
 70
     1
102
RTVSPropertyOp28
 70
     1
102
RTVSPropertyOp29
 70
     1
102
RTVSPropertyOp30
 70
     1
102
RTVSPropertyOp31
 70
     1
102
RTVSPropertyOp32
 70
     1
  0
XRECORD
  5
EB
102
{ACAD_REACTORS
330
EA
102
}
330
EA
100
AcDbXrecord
280
     1
102
RTVSPropertyOp0
 70
     1
102
RTVSPropertyOp1
 70
     1
102
RTVSPropertyOp2
 70
     1
102
RTVSPropertyOp3
 70
     1
102
RTVSPropertyOp4
 70
     1
102
RTVSPropertyOp5
 70
     1
102
RTVSPropertyOp6
 70
     1
102
RTVSPropertyOp7
 70
     1
102
RTVSPropertyOp8
 70
     1
102
RTVSPropertyOp9
 70
     1
102
RTVSPropertyOp10
 70
     1
102
RTVSPropertyOp11
 70
     1
102
RTVSPropertyOp12
 70
     1
102
RTVSPropertyOp13
 70
     1
102
RTVSPropertyOp14
 70
     1
102
RTVSPropertyOp15
 70
     1
102
RTVSPropertyOp16
 70
     1
102
RTVSPropertyOp17
 70
     1
102
RTVSPropertyOp18
 70
     1
102
RTVSPropertyOp19
 70
     1
102
RTVSPropertyOp20
 70
     1
102
RTVSPropertyOp21
 70
     1
102
RTVSPropertyOp22
 70
     1
102
RTVSPropertyOp23
 70
     1
102
RTVSPropertyOp24
 70
     1
102
RTVSPropertyOp25
 70
     1
102
RTVSPropertyOp26
 70
     1
102
RTVSPropertyOp27
 70
     1
102
RTVSPropertyOp28
 70
     1
102
RTVSPropertyOp29
 70
     1
102
RTVSPropertyOp30
 70
     1
102
RTVSPropertyOp31
 70
     1
102
RTVSPropertyOp32
 70
     1
  0
XRECORD
  5
F3
102
{ACAD_REACTORS
330
F2
102
}
330
F2
100
AcDbXrecord
280
     1
102
RTVSPropertyOp0
 70
     1
102
RTVSPropertyOp1
 70
     1
102
RTVSPropertyOp2
 70
     1
102
RTVSPropertyOp3
 70
     1
102
RTVSPropertyOp4
 70
     1
102
RTVSPropertyOp5
 70
     1
102
RTVSPropertyOp6
 70
     1
102
RTVSPropertyOp7
 70
     1
102
RTVSPropertyOp8
 70
     1
102
RTVSPropertyOp9
 70
     1
102
RTVSPropertyOp10
 70
     1
102
RTVSPropertyOp11
 70
     1
102
RTVSPropertyOp12
 70
     1
102
RTVSPropertyOp13
 70
     1
102
RTVSPropertyOp14
 70
     1
102
RTVSPropertyOp15
 70
     1
102
RTVSPropertyOp16
 70
     1
102
RTVSPropertyOp17
 70
     1
102
RTVSPropertyOp18
 70
     1
102
RTVSPropertyOp19
 70
     1
102
RTVSPropertyOp20
 70
     1
102
RTVSPropertyOp21
 70
     1
102
RTVSPropertyOp22
 70
     1
102
RTVSPropertyOp23
 70
     1
102
RTVSPropertyOp24
 70
     1
102
RTVSPropertyOp25
 70
     1
102
RTVSPropertyOp26
 70
     1
102
RTVSPropertyOp27
 70
     1
102
RTVSPropertyOp28
 70
     1
102
RTVSPropertyOp29
 70
     1
102
RTVSPropertyOp30
 70
     1
102
RTVSPropertyOp31
 70
     1
102
RTVSPropertyOp32
 70
     1
  0
XRECORD
  5
E7
102
{ACAD_REACTORS
330
E6
102
}
330
E6
100
AcDbXrecord
280
     1
102
RTVSPropertyOp0
 70
     1
102
RTVSPropertyOp1
 70
     1
102
RTVSPropertyOp2
 70
     1
102
RTVSPropertyOp3
 70
     1
102
RTVSPropertyOp4
 70
     1
102
RTVSPropertyOp5
 70
     1
102
RTVSPropertyOp6
 70
     1
102
RTVSPropertyOp7
 70
     1
102
RTVSPropertyOp8
 70
     1
102
RTVSPropertyOp9
 70
     1
102
RTVSPropertyOp10
 70
     1
102
RTVSPropertyOp11
 70
     1
102
RTVSPropertyOp12
 70
     1
102
RTVSPropertyOp13
 70
     1
102
RTVSPropertyOp14
 70
     1
102
RTVSPropertyOp15
 70
     1
102
RTVSPropertyOp16
 70
     1
102
RTVSPropertyOp17
 70
     1
102
RTVSPropertyOp18
 70
     1
102
RTVSPropertyOp19
 70
     1
102
RTVSPropertyOp20
 70
     1
102
RTVSPropertyOp21
 70
     1
102
RTVSPropertyOp22
 70
     1
102
RTVSPropertyOp23
 70
     1
102
RTVSPropertyOp24
 70
     1
102
RTVSPropertyOp25
 70
     1
102
RTVSPropertyOp26
 70
     1
102
RTVSPropertyOp27
 70
     1
102
RTVSPropertyOp28
 70
     1
102
RTVSPropertyOp29
 70
     1
102
RTVSPropertyOp30
 70
     1
102
RTVSPropertyOp31
 70
     1
102
RTVSPropertyOp32
 70
     1
  0
XRECORD
  5
E9
102
{ACAD_REACTORS
330
E8
102
}
330
E8
100
AcDbXrecord
280
     1
102
RTVSPropertyOp0
 70
     1
102
RTVSPropertyOp1
 70
     1
102
RTVSPropertyOp2
 70
     1
102
RTVSPropertyOp3
 70
     1
102
RTVSPropertyOp4
 70
     1
102
RTVSPropertyOp5
 70
     1
102
RTVSPropertyOp6
 70
     1
102
RTVSPropertyOp7
 70
     1
102
RTVSPropertyOp8
 70
     1
102
RTVSPropertyOp9
 70
     1
102
RTVSPropertyOp10
 70
     1
102
RTVSPropertyOp11
 70
     1
102
RTVSPropertyOp12
 70
     1
102
RTVSPropertyOp13
 70
     1
102
RTVSPropertyOp14
 70
     1
102
RTVSPropertyOp15
 70
     1
102
RTVSPropertyOp16
 70
     1
102
RTVSPropertyOp17
 70
     1
102
RTVSPropertyOp18
 70
     1
102
RTVSPropertyOp19
 70
     1
102
RTVSPropertyOp20
 70
     1
102
RTVSPropertyOp21
 70
     1
102
RTVSPropertyOp22
 70
     1
102
RTVSPropertyOp23
 70
     1
102
RTVSPropertyOp24
 70
     1
102
RTVSPropertyOp25
 70
     1
102
RTVSPropertyOp26
 70
     1
102
RTVSPropertyOp27
 70
     1
102
RTVSPropertyOp28
 70
     1
102
RTVSPropertyOp29
 70
     1
102
RTVSPropertyOp30
 70
     1
102
RTVSPropertyOp31
 70
     1
102
RTVSPropertyOp32
 70
     1
  0
XRECORD
  5
F1
102
{ACAD_REACTORS
330
F0
102
}
330
F0
100
AcDbXrecord
280
     1
102
RTVSPropertyOp0
 70
     1
102
RTVSPropertyOp1
 70
     1
102
RTVSPropertyOp2
 70
     1
102
RTVSPropertyOp3
 70
     1
102
RTVSPropertyOp4
 70
     1
102
RTVSPropertyOp5
 70
     1
102
RTVSPropertyOp6
 70
     1
102
RTVSPropertyOp7
 70
     1
102
RTVSPropertyOp8
 70
     1
102
RTVSPropertyOp9
 70
     1
102
RTVSPropertyOp10
 70
     1
102
RTVSPropertyOp11
 70
     1
102
RTVSPropertyOp12
 70
     1
102
RTVSPropertyOp13
 70
     1
102
RTVSPropertyOp14
 70
     1
102
RTVSPropertyOp15
 70
     1
102
RTVSPropertyOp16
 70
     1
102
RTVSPropertyOp17
 70
     1
102
RTVSPropertyOp18
 70
     1
102
RTVSPropertyOp19
 70
     1
102
RTVSPropertyOp20
 70
     1
102
RTVSPropertyOp21
 70
     1
102
RTVSPropertyOp22
 70
     1
102
RTVSPropertyOp23
 70
     1
102
RTVSPropertyOp24
 70
     1
102
RTVSPropertyOp25
 70
     1
102
RTVSPropertyOp26
 70
     1
102
RTVSPropertyOp27
 70
     1
102
RTVSPropertyOp28
 70
     1
102
RTVSPropertyOp29
 70
     1
102
RTVSPropertyOp30
 70
     1
102
RTVSPropertyOp31
 70
     1
102
RTVSPropertyOp32
 70
     1
  0
XRECORD
  5
D5
102
{ACAD_REACTORS
330
D4
102
}
330
D4
100
AcDbXrecord
280
     1
102
RTVSPropertyOp0
 70
     1
102
RTVSPropertyOp1
 70
     1
102
RTVSPropertyOp2
 70
     1
102
RTVSPropertyOp3
 70
     1
102
RTVSPropertyOp4
 70
     1
102
RTVSPropertyOp5
 70
     1
102
RTVSPropertyOp6
 70
     1
102
RTVSPropertyOp7
 70
     1
102
RTVSPropertyOp8
 70
     1
102
RTVSPropertyOp9
 70
     1
102
RTVSPropertyOp10
 70
     1
102
RTVSPropertyOp11
 70
     1
102
RTVSPropertyOp12
 70
     1
102
RTVSPropertyOp13
 70
     1
102
RTVSPropertyOp14
 70
     1
102
RTVSPropertyOp15
 70
     1
102
RTVSPropertyOp16
 70
     1
102
RTVSPropertyOp17
 70
     1
102
RTVSPropertyOp18
 70
     1
102
RTVSPropertyOp19
 70
     1
102
RTVSPropertyOp20
 70
     1
102
RTVSPropertyOp21
 70
     1
102
RTVSPropertyOp22
 70
     1
102
RTVSPropertyOp23
 70
     1
102
RTVSPropertyOp24
 70
     1
102
RTVSPropertyOp25
 70
     1
102
RTVSPropertyOp26
 70
     1
102
RTVSPropertyOp27
 70
     1
102
RTVSPropertyOp28
 70
     1
102
RTVSPropertyOp29
 70
     1
102
RTVSPropertyOp30
 70
     1
102
RTVSPropertyOp31
 70
     1
102
RTVSPropertyOp32
 70
     1
  0
XRECORD
  5
D7
102
{ACAD_REACTORS
330
D6
102
}
330
D6
100
AcDbXrecord
280
     1
102
RTVSPropertyOp0
 70
     1
102
RTVSPropertyOp1
 70
     1
102
RTVSPropertyOp2
 70
     1
102
RTVSPropertyOp3
 70
     1
102
RTVSPropertyOp4
 70
     1
102
RTVSPropertyOp5
 70
     1
102
RTVSPropertyOp6
 70
     1
102
RTVSPropertyOp7
 70
     1
102
RTVSPropertyOp8
 70
     1
102
RTVSPropertyOp9
 70
     1
102
RTVSPropertyOp10
 70
     1
102
RTVSPropertyOp11
 70
     1
102
RTVSPropertyOp12
 70
     1
102
RTVSPropertyOp13
 70
     1
102
RTVSPropertyOp14
 70
     1
102
RTVSPropertyOp15
 70
     1
102
RTVSPropertyOp16
 70
     1
102
RTVSPropertyOp17
 70
     1
102
RTVSPropertyOp18
 70
     1
102
RTVSPropertyOp19
 70
     1
102
RTVSPropertyOp20
 70
     1
102
RTVSPropertyOp21
 70
     1
102
RTVSPropertyOp22
 70
     1
102
RTVSPropertyOp23
 70
     1
102
RTVSPropertyOp24
 70
     1
102
RTVSPropertyOp25
 70
     1
102
RTVSPropertyOp26
 70
     1
102
RTVSPropertyOp27
 70
     1
102
RTVSPropertyOp28
 70
     1
102
RTVSPropertyOp29
 70
     1
102
RTVSPropertyOp30
 70
     1
102
RTVSPropertyOp31
 70
     1
102
RTVSPropertyOp32
 70
     1
  0
XRECORD
  5
D9
102
{ACAD_REACTORS
330
D8
102
}
330
D8
100
AcDbXrecord
280
     1
102
RTVSPropertyOp0
 70
     1
102
RTVSPropertyOp1
 70
     1
102
RTVSPropertyOp2
 70
     1
102
RTVSPropertyOp3
 70
     1
102
RTVSPropertyOp4
 70
     1
102
RTVSPropertyOp5
 70
     1
102
RTVSPropertyOp6
 70
     1
102
RTVSPropertyOp7
 70
     1
102
RTVSPropertyOp8
 70
     1
102
RTVSPropertyOp9
 70
     1
102
RTVSPropertyOp10
 70
     1
102
RTVSPropertyOp11
 70
     1
102
RTVSPropertyOp12
 70
     1
102
RTVSPropertyOp13
 70
     1
102
RTVSPropertyOp14
 70
     1
102
RTVSPropertyOp15
 70
     1
102
RTVSPropertyOp16
 70
     1
102
RTVSPropertyOp17
 70
     1
102
RTVSPropertyOp18
 70
     1
102
RTVSPropertyOp19
 70
     1
102
RTVSPropertyOp20
 70
     1
102
RTVSPropertyOp21
 70
     1
102
RTVSPropertyOp22
 70
     1
102
RTVSPropertyOp23
 70
     1
102
RTVSPropertyOp24
 70
     1
102
RTVSPropertyOp25
 70
     1
102
RTVSPropertyOp26
 70
     1
102
RTVSPropertyOp27
 70
     1
102
RTVSPropertyOp28
 70
     1
102
RTVSPropertyOp29
 70
     1
102
RTVSPropertyOp30
 70
     1
102
RTVSPropertyOp31
 70
     1
102
RTVSPropertyOp32
 70
     1
  0
XRECORD
  5
DB
102
{ACAD_REACTORS
330
DA
102
}
330
DA
100
AcDbXrecord
280
     1
102
RTVSPropertyOp0
 70
     1
102
RTVSPropertyOp1
 70
     1
102
RTVSPropertyOp2
 70
     1
102
RTVSPropertyOp3
 70
     1
102
RTVSPropertyOp4
 70
     1
102
RTVSPropertyOp5
 70
     1
102
RTVSPropertyOp6
 70
     1
102
RTVSPropertyOp7
 70
     1
102
RTVSPropertyOp8
 70
     1
102
RTVSPropertyOp9
 70
     1
102
RTVSPropertyOp10
 70
     1
102
RTVSPropertyOp11
 70
     1
102
RTVSPropertyOp12
 70
     1
102
RTVSPropertyOp13
 70
     1
102
RTVSPropertyOp14
 70
     1
102
RTVSPropertyOp15
 70
     1
102
RTVSPropertyOp16
 70
     1
102
RTVSPropertyOp17
 70
     1
102
RTVSPropertyOp18
 70
     1
102
RTVSPropertyOp19
 70
     1
102
RTVSPropertyOp20
 70
     1
102
RTVSPropertyOp21
 70
     1
102
RTVSPropertyOp22
 70
     1
102
RTVSPropertyOp23
 70
     1
102
RTVSPropertyOp24
 70
     1
102
RTVSPropertyOp25
 70
     1
102
RTVSPropertyOp26
 70
     1
102
RTVSPropertyOp27
 70
     1
102
RTVSPropertyOp28
 70
     1
102
RTVSPropertyOp29
 70
     1
102
RTVSPropertyOp30
 70
     1
102
RTVSPropertyOp31
 70
     1
102
RTVSPropertyOp32
 70
     1
  0
XRECORD
  5
EF
102
{ACAD_REACTORS
330
EE
102
}
330
EE
100
AcDbXrecord
280
     1
102
RTVSPropertyOp0
 70
     1
102
RTVSPropertyOp1
 70
     1
102
RTVSPropertyOp2
 70
     1
102
RTVSPropertyOp3
 70
     1
102
RTVSPropertyOp4
 70
     1
102
RTVSPropertyOp5
 70
     1
102
RTVSPropertyOp6
 70
     1
102
RTVSPropertyOp7
 70
     1
102
RTVSPropertyOp8
 70
     1
102
RTVSPropertyOp9
 70
     1
102
RTVSPropertyOp10
 70
     1
102
RTVSPropertyOp11
 70
     1
102
RTVSPropertyOp12
 70
     1
102
RTVSPropertyOp13
 70
     1
102
RTVSPropertyOp14
 70
     1
102
RTVSPropertyOp15
 70
     1
102
RTVSPropertyOp16
 70
     1
102
RTVSPropertyOp17
 70
     1
102
RTVSPropertyOp18
 70
     1
102
RTVSPropertyOp19
 70
     1
102
RTVSPropertyOp20
 70
     1
102
RTVSPropertyOp21
 70
     1
102
RTVSPropertyOp22
 70
     1
102
RTVSPropertyOp23
 70
     1
102
RTVSPropertyOp24
 70
     1
102
RTVSPropertyOp25
 70
     1
102
RTVSPropertyOp26
 70
     1
102
RTVSPropertyOp27
 70
     1
102
RTVSPropertyOp28
 70
     1
102
RTVSPropertyOp29
 70
     1
102
RTVSPropertyOp30
 70
     1
102
RTVSPropertyOp31
 70
     1
102
RTVSPropertyOp32
 70
     1
  0
XRECORD
  5
E5
102
{ACAD_REACTORS
330
E4
102
}
330
E4
100
AcDbXrecord
280
     1
102
RTVSPropertyOp0
 70
     1
102
RTVSPropertyOp1
 70
     1
102
RTVSPropertyOp2
 70
     1
102
RTVSPropertyOp3
 70
     1
102
RTVSPropertyOp4
 70
     1
102
RTVSPropertyOp5
 70
     1
102
RTVSPropertyOp6
 70
     1
102
RTVSPropertyOp7
 70
     1
102
RTVSPropertyOp8
 70
     1
102
RTVSPropertyOp9
 70
     1
102
RTVSPropertyOp10
 70
     1
102
RTVSPropertyOp11
 70
     1
102
RTVSPropertyOp12
 70
     1
102
RTVSPropertyOp13
 70
     1
102
RTVSPropertyOp14
 70
     1
102
RTVSPropertyOp15
 70
     1
102
RTVSPropertyOp16
 70
     1
102
RTVSPropertyOp17
 70
     1
102
RTVSPropertyOp18
 70
     1
102
RTVSPropertyOp19
 70
     1
102
RTVSPropertyOp20
 70
     1
102
RTVSPropertyOp21
 70
     1
102
RTVSPropertyOp22
 70
     1
102
RTVSPropertyOp23
 70
     1
102
RTVSPropertyOp24
 70
     1
102
RTVSPropertyOp25
 70
     1
102
RTVSPropertyOp26
 70
     1
102
RTVSPropertyOp27
 70
     1
102
RTVSPropertyOp28
 70
     1
102
RTVSPropertyOp29
 70
     1
102
RTVSPropertyOp30
 70
     1
102
RTVSPropertyOp31
 70
     1
102
RTVSPropertyOp32
 70
     1
  0
XRECORD
  5
ED
102
{ACAD_REACTORS
330
EC
102
}
330
EC
100
AcDbXrecord
280
     1
102
RTVSPropertyOp0
 70
     1
102
RTVSPropertyOp1
 70
     1
102
RTVSPropertyOp2
 70
     1
102
RTVSPropertyOp3
 70
     1
102
RTVSPropertyOp4
 70
     1
102
RTVSPropertyOp5
 70
     1
102
RTVSPropertyOp6
 70
     1
102
RTVSPropertyOp7
 70
     1
102
RTVSPropertyOp8
 70
     1
102
RTVSPropertyOp9
 70
     1
102
RTVSPropertyOp10
 70
     1
102
RTVSPropertyOp11
 70
     1
102
RTVSPropertyOp12
 70
     1
102
RTVSPropertyOp13
 70
     1
102
RTVSPropertyOp14
 70
     1
102
RTVSPropertyOp15
 70
     1
102
RTVSPropertyOp16
 70
     1
102
RTVSPropertyOp17
 70
     1
102
RTVSPropertyOp18
 70
     1
102
RTVSPropertyOp19
 70
     1
102
RTVSPropertyOp20
 70
     1
102
RTVSPropertyOp21
 70
     1
102
RTVSPropertyOp22
 70
     1
102
RTVSPropertyOp23
 70
     1
102
RTVSPropertyOp24
 70
     1
102
RTVSPropertyOp25
 70
     1
102
RTVSPropertyOp26
 70
     1
102
RTVSPropertyOp27
 70
     1
102
RTVSPropertyOp28
 70
     1
102
RTVSPropertyOp29
 70
     1
102
RTVSPropertyOp30
 70
     1
102
RTVSPropertyOp31
 70
     1
102
RTVSPropertyOp32
 70
     1
  0
ENDSEC
  0
EOF
