  0
SECTION
  2
HEADER
  9
$ACADVER
  1
AC1015
  9
$ACADMAINTVER
 70
     6
  9
$DWGCODEPAGE
  3
ANSI_1252
  9
$INSBASE
 10
0.0
 20
0.0
 30
0.0
  9
$EXTMIN
 10
0.0
 20
0.0
 30
0.0
  9
$EXTMAX
 10
594.0
 20
420.0
 30
0.0
  9
$LIMMIN
 10
0.0
 20
0.0
  9
$LIMMAX
 10
594.0
 20
420.0
  9
$ORTHOMODE
 70
     0
  9
$REGENMODE
 70
     1
  9
$FILLMODE
 70
     1
  9
$QTEXTMODE
 70
     0
  9
$MIRRTEXT
 70
     1
  9
$LTSCALE
 40
1.0
  9
$ATTMODE
 70
     1
  9
$TEXTSIZE
 40
2.5
  9
$TRACEWID
 40
1.0
  9
$TEXTSTYLE
  7
Standard
  9
$CLAYER
  8
0
  9
$CELTYPE
  6
ByLayer
  9
$CECOLOR
 62
   256
  9
$CELTSCALE
 40
1.0
  9
$DISPSILH
 70
     0
  9
$DIMSCALE
 40
1.0
  9
$DIMASZ
 40
2.5
  9
$DIMEXO
 40
0.625
  9
$DIMDLI
 40
3.75
  9
$DIMRND
 40
0.0
  9
$DIMDLE
 40
0.0
  9
$DIMEXE
 40
1.25
  9
$DIMTP
 40
0.0
  9
$DIMTM
 40
0.0
  9
$DIMTXT
 40
2.5
  9
$DIMCEN
 40
2.5
  9
$DIMTSZ
 40
0.0
  9
$DIMTOL
 70
     0
  9
$DIMLIM
 70
     0
  9
$DIMTIH
 70
     0
  9
$DIMTOH
 70
     0
  9
$DIMSE1
 70
     0
  9
$DIMSE2
 70
     0
  9
$DIMTAD
 70
     1
  9
$DIMZIN
 70
     8
  9
$DIMBLK
  1

  9
$DIMASO
 70
     1
  9
$DIMSHO
 70
     1
  9
$DIMPOST
  1

  9
$DIMAPOST
  1

  9
$DIMALT
 70
     0
  9
$DIMALTD
 70
     3
  9
$DIMALTF
 40
0.0393700787
  9
$DIMLFAC
 40
1.0
  9
$DIMTOFL
 70
     1
  9
$DIMTVP
 40
0.0
  9
$DIMTIX
 70
     0
  9
$DIMSOXD
 70
     0
  9
$DIMSAH
 70
     0
  9
$DIMBLK1
  1

  9
$DIMBLK2
  1

  9
$DIMSTYLE
  2
ISO-25
  9
$DIMCLRD
 70
     0
  9
$DIMCLRE
 70
     0
  9
$DIMCLRT
 70
     0
  9
$DIMTFAC
 40
1.0
  9
$DIMGAP
 40
0.625
  9
$DIMJUST
 70
     0
  9
$DIMSD1
 70
     0
  9
$DIMSD2
 70
     0
  9
$DIMTOLJ
 70
     0
  9
$DIMTZIN
 70
     8
  9
$DIMALTZ
 70
     0
  9
$DIMALTTZ
 70
     0
  9
$DIMUPT
 70
     0
  9
$DIMDEC
 70
     2
  9
$DIMTDEC
 70
     2
  9
$DIMALTU
 70
     2
  9
$DIMALTTD
 70
     3
  9
$DIMTXSTY
  7
Standard
  9
$DIMAUNIT
 70
     0
  9
$DIMADEC
 70
     0
  9
$DIMALTRND
 40
0.0
  9
$DIMAZIN
 70
     0
  9
$DIMDSEP
 70
    44
  9
$DIMATFIT
 70
     3
  9
$DIMFRAC
 70
     0
  9
$DIMLDRBLK
  1

  9
$DIMLUNIT
 70
     2
  9
$DIMLWD
 70
    -2
  9
$DIMLWE
 70
    -2
  9
$DIMTMOVE
 70
     0
  9
$LUNITS
 70
     2
  9
$LUPREC
 70
     4
  9
$SKETCHINC
 40
1.0
  9
$FILLETRAD
 40
10.0
  9
$AUNITS
 70
     0
  9
$AUPREC
 70
     0
  9
$MENU
  1
.
  9
$ELEVATION
 40
0.0
  9
$PELEVATION
 40
0.0
  9
$THICKNESS
 40
0.0
  9
$LIMCHECK
 70
     0
  9
$CHAMFERA
 40
10.0
  9
$CHAMFERB
 40
10.0
  9
$CHAMFERC
 40
20.0
  9
$CHAMFERD
 40
0.0
  9
$SKPOLY
 70
     0
  9
$TDCREATE
 40
2457071.504585648
  9
$TDUCREATE
 40
2457071.462918981
  9
$TDUPDATE
 40
2457071.504588901
  9
$TDUUPDATE
 40
2457071.462922234
  9
$TDINDWG
 40
0.0000000116
  9
$TDUSRTIMER
 40
0.0000000116
  9
$USRTIMER
 70
     1
  9
$ANGBASE
 50
0.0
  9
$ANGDIR
 70
     0
  9
$PDMODE
 70
     0
  9
$PDSIZE
 40
0.0
  9
$PLINEWID
 40
0.0
  9
$SPLFRAME
 70
     0
  9
$SPLINETYPE
 70
     6
  9
$SPLINESEGS
 70
     8
  9
$HANDSEED
  5
333
  9
$SURFTAB1
 70
     6
  9
$SURFTAB2
 70
     6
  9
$SURFTYPE
 70
     6
  9
$SURFU
 70
     6
  9
$SURFV
 70
     6
  9
$UCSBASE
  2

  9
$UCSNAME
  2

  9
$UCSORG
 10
0.0
 20
0.0
 30
0.0
  9
$UCSXDIR
 10
1.0
 20
0.0
 30
0.0
  9
$UCSYDIR
 10
0.0
 20
1.0
 30
0.0
  9
$UCSORTHOREF
  2

  9
$UCSORTHOVIEW
 70
     0
  9
$UCSORGTOP
 10
0.0
 20
0.0
 30
0.0
  9
$UCSORGBOTTOM
 10
0.0
 20
0.0
 30
0.0
  9
$UCSORGLEFT
 10
0.0
 20
0.0
 30
0.0
  9
$UCSORGRIGHT
 10
0.0
 20
0.0
 30
0.0
  9
$UCSORGFRONT
 10
0.0
 20
0.0
 30
0.0
  9
$UCSORGBACK
 10
0.0
 20
0.0
 30
0.0
  9
$PUCSBASE
  2

  9
$PUCSNAME
  2

  9
$PUCSORG
 10
0.0
 20
0.0
 30
0.0
  9
$PUCSXDIR
 10
1.0
 20
0.0
 30
0.0
  9
$PUCSYDIR
 10
0.0
 20
1.0
 30
0.0
  9
$PUCSORTHOREF
  2

  9
$PUCSORTHOVIEW
 70
     0
  9
$PUCSORGTOP
 10
0.0
 20
0.0
 30
0.0
  9
$PUCSORGBOTTOM
 10
0.0
 20
0.0
 30
0.0
  9
$PUCSORGLEFT
 10
0.0
 20
0.0
 30
0.0
  9
$PUCSORGRIGHT
 10
0.0
 20
0.0
 30
0.0
  9
$PUCSORGFRONT
 10
0.0
 20
0.0
 30
0.0
  9
$PUCSORGBACK
 10
0.0
 20
0.0
 30
0.0
  9
$USERI1
 70
     0
  9
$USERI2
 70
     0
  9
$USERI3
 70
     0
  9
$USERI4
 70
     0
  9
$USERI5
 70
     0
  9
$USERR1
 40
0.0
  9
$USERR2
 40
0.0
  9
$USERR3
 40
0.0
  9
$USERR4
 40
0.0
  9
$USERR5
 40
0.0
  9
$WORLDVIEW
 70
     1
  9
$SHADEDGE
 70
     3
  9
$SHADEDIF
 70
    70
  9
$TILEMODE
 70
     1
  9
$MAXACTVP
 70
    64
  9
$PINSBASE
 10
0.0
 20
0.0
 30
0.0
  9
$PLIMCHECK
 70
     0
  9
$PEXTMIN
 10
0.0
 20
0.0
 30
0.0
  9
$PEXTMAX
 10
594.0
 20
420.0
 30
0.0
  9
$PLIMMIN
 10
0.0
 20
0.0
  9
$PLIMMAX
 10
594.0
 20
420.0
  9
$UNITMODE
 70
     0
  9
$VISRETAIN
 70
     1
  9
$PLINEGEN
 70
     0
  9
$PSLTSCALE
 70
     1
  9
$TREEDEPTH
 70
  3020
  9
$CMLSTYLE
  2
Standard
  9
$CMLJUST
 70
     0
  9
$CMLSCALE
 40
20.0
  9
$PROXYGRAPHICS
 70
     1
  9
$MEASUREMENT
 70
     1
  9
$CELWEIGHT
370
    -1
  9
$ENDCAPS
280
     0
  9
$JOINSTYLE
280
     0
  9
$LWDISPLAY
290
     0
  9
$INSUNITS
 70
     4
  9
$HYPERLINKBASE
  1

  9
$STYLESHEET
  1

  9
$XEDIT
290
     1
  9
$CEPSNTYPE
380
     0
  9
$PSTYLEMODE
290
     1
  9
$FINGERPRINTGUID
  2
{6611E63E-0C03-44E6-A9F9-78DF2E91CD70}
  9
$VERSIONGUID
  2
{FAEB1C32-E019-11D5-929B-00C0DF256EC4}
  9
$EXTNAMES
290
     1
  9
$PSVPSCALE
 40
0.0
  9
$OLESTARTUP
290
     0
  0
ENDSEC
  0
SECTION
  2
CLASSES
  0
CLASS
  1
ACDBDICTIONARYWDFLT
  2
AcDbDictionaryWithDefault
  3
ObjectDBX Classes
 90
        0
280
     0
281
     0
  0
CLASS
  1
VISUALSTYLE
  2
AcDbVisualStyle
  3
ObjectDBX Classes
 90
     4095
280
     0
281
     0
  0
CLASS
  1
MATERIAL
  2
AcDbMaterial
  3
ObjectDBX Classes
 90
     1153
280
     0
281
     0
  0
CLASS
  1
DICTIONARYVAR
  2
AcDbDictionaryVar
  3
ObjectDBX Classes
 90
        0
280
     0
281
     0
  0
CLASS
  1
ACDBPLACEHOLDER
  2
AcDbPlaceHolder
  3
ObjectDBX Classes
 90
        0
280
     0
281
     0
  0
CLASS
  1
LAYOUT
  2
AcDbLayout
  3
ObjectDBX Classes
 90
        0
280
     0
281
     0
  0
ENDSEC
  0
SECTION
  2
TABLES
  0
TABLE
  2
VPORT
  5
8
330
0
100
AcDbSymbolTable
 70
     1
  0
VPORT
  5
29
330
8
100
AcDbSymbolTableRecord
100
AcDbViewportTableRecord
  2
*Active
 70
     0
 10
0.0
 20
0.0
 11
1.0
 21
1.0
 12
344.1869158879
 22
148.5
 13
0.0
 23
0.0
 14
10.0
 24
10.0
 15
10.0
 25
10.0
 16
0.0
 26
0.0
 36
1.0
 17
0.0
 27
0.0
 37
0.0
 40
297.0
 41
1.9729729729
 42
50.0
 43
0.0
 44
0.0
 50
0.0
 51
0.0
 71
     0
 72
   100
 73
     1
 74
     3
 75
     0
 76
     0
 77
     0
 78
     0
281
     0
 65
     1
110
0.0
120
0.0
130
0.0
111
1.0
121
0.0
131
0.0
112
0.0
122
1.0
132
0.0
 79
     0
146
0.0
  0
ENDTAB
  0
TABLE
  2
LTYPE
  5
5
330
0
100
AcDbSymbolTable
 70
     2
  0
LTYPE
  5
14
330
5
100
AcDbSymbolTableRecord
100
AcDbLinetypeTableRecord
  2
ByBlock
 70
     0
  3

 72
    65
 73
     0
 40
0.0
  0
LTYPE
  5
15
330
5
100
AcDbSymbolTableRecord
100
AcDbLinetypeTableRecord
  2
ByLayer
 70
     0
  3

 72
    65
 73
     0
 40
0.0
  0
LTYPE
  5
16
330
5
100
AcDbSymbolTableRecord
100
AcDbLinetypeTableRecord
  2
Continuous
 70
     0
  3
Solid line
 72
    65
 73
     0
 40
0.0
  0
LTYPE
  5
5D
330
5
100
AcDbSymbolTableRecord
100
AcDbLinetypeTableRecord
  2
HIDDEN2
 70
     0
  3
Hidden (2x) ____ ____ ____ ____ ____ ____ ____ 
 72
    65
 73
     2
 40
19.05
 49
12.7
 74
     4
 75
     0
340
0
 46
0.0
 50
0.0
 44
0.0
 45
0.0
 49
-6.35
 74
     4
 75
     0
340
0
 46
0.0
 50
0.0
 44
0.0
 45
0.0
  0
ENDTAB
  0
TABLE
  2
LAYER
  5
2
330
0
100
AcDbSymbolTable
 70
     3
  0
LAYER
  5
10
330
2
100
AcDbSymbolTableRecord
100
AcDbLayerTableRecord
  2
0
 70
     0
 62
     7
  6
Continuous
370
    -3
390
F
  0
LAYER
  5
40
330
2
100
AcDbSymbolTableRecord
100
AcDbLayerTableRecord
  2
Provvisorio
 70
     0
 62
     7
  6
Continuous
370
    -3
390
F
  0
LAYER
  5
14D
330
2
100
AcDbSymbolTableRecord
100
AcDbLayerTableRecord
  2
_Translation
 70
     1
 62
    -7
  6
Continuous
370
    -3
390
F
  0
ENDTAB
  0
TABLE
  2
STYLE
  5
3
330
0
100
AcDbSymbolTable
 70
     4
  0
STYLE
  5
11
330
3
100
AcDbSymbolTableRecord
100
AcDbTextStyleTableRecord
  2
Standard
 70
     0
 40
0.0
 41
1.0
 50
0.0
 71
     0
 42
2.5
  3
txt
  4

  0
STYLE
  5
A8
330
3
100
AcDbSymbolTableRecord
100
AcDbTextStyleTableRecord
  2
SEACAD_arial_ttf
 70
     0
 40
0.0
 41
1.0
 50
0.0
 71
     0
 42
0.2
  3

  4

1001
ACAD
1000
arial.ttf
1071
        0
  0
STYLE
  5
1C6
330
3
100
AcDbSymbolTableRecord
100
AcDbTextStyleTableRecord
  2
SEACAD_arial_ttfB
 70
     0
 40
0.0
 41
1.0
 50
0.0
 71
     0
 42
0.2
  3

  4

1001
ACAD
1000
arial.ttf
1071
 33554432
  0
STYLE
  5
2A3
330
3
100
AcDbSymbolTableRecord
100
AcDbTextStyleTableRecord
  2
SEACAD_Solid_Edge_ANSI1_Symbols
 70
     0
 40
0.0
 41
1.0
 50
0.0
 71
     0
 42
0.2
  3
semeca1.ttf
  4

1001
ACAD
1000
Solid Edge ANSI1 Symbols
1071
        0
  0
ENDTAB
  0
TABLE
  2
VIEW
  5
6
330
0
100
AcDbSymbolTable
 70
     0
  0
ENDTAB
  0
TABLE
  2
UCS
  5
7
330
0
100
AcDbSymbolTable
 70
     0
  0
ENDTAB
  0
TABLE
  2
APPID
  5
9
330
0
100
AcDbSymbolTable
 70
     1
  0
APPID
  5
12
330
9
100
AcDbSymbolTableRecord
100
AcDbRegAppTableRecord
  2
ACAD
 70
     0
  0
ENDTAB
  0
TABLE
  2
DIMSTYLE
  5
A
330
0
100
AcDbSymbolTable
 70
     1
100
AcDbDimStyleTable
  0
DIMSTYLE
105
27
330
A
100
AcDbSymbolTableRecord
100
AcDbDimStyleTableRecord
  2
ISO-25
 70
     0
 41
2.5
 42
0.625
 43
3.75
 44
1.25
 73
     0
 74
     0
 77
     1
 78
     8
140
2.5
141
2.5
143
0.0393700787
147
0.625
171
     3
172
     1
178
     0
271
     2
272
     2
274
     3
278
    44
283
     0
284
     8
340
11
  0
ENDTAB
  0
TABLE
  2
BLOCK_RECORD
  5
1
330
0
100
AcDbSymbolTable
 70
    24
  0
BLOCK_RECORD
  5
1F
330
1
100
AcDbSymbolTableRecord
100
AcDbBlockTableRecord
  2
*Model_Space
340
22
  0
BLOCK_RECORD
  5
1B
330
1
100
AcDbSymbolTableRecord
100
AcDbBlockTableRecord
  2
*Paper_Space
340
1E
  0
BLOCK_RECORD
  5
1C2
330
1
100
AcDbSymbolTableRecord
100
AcDbBlockTableRecord
  2
SEANNOT_GROUP
340
0
102
{BLKREFS
331
1C3
102
}
  0
BLOCK_RECORD
  5
220
330
1
100
AcDbSymbolTableRecord
100
AcDbBlockTableRecord
  2
SE
340
0
102
{BLKREFS
331
221
102
}
  0
BLOCK_RECORD
  5
228
330
1
100
AcDbSymbolTableRecord
100
AcDbBlockTableRecord
  2
SE1
340
0
102
{BLKREFS
331
229
102
}
  0
BLOCK_RECORD
  5
232
330
1
100
AcDbSymbolTableRecord
100
AcDbBlockTableRecord
  2
SE2
340
0
102
{BLKREFS
331
233
102
}
  0
BLOCK_RECORD
  5
237
330
1
100
AcDbSymbolTableRecord
100
AcDbBlockTableRecord
  2
GDimGGroup
340
0
102
{BLKREFS
331
238
102
}
  0
BLOCK_RECORD
  5
241
330
1
100
AcDbSymbolTableRecord
100
AcDbBlockTableRecord
  2
GDimGGroup1
340
0
102
{BLKREFS
331
242
102
}
  0
BLOCK_RECORD
  5
24B
330
1
100
AcDbSymbolTableRecord
100
AcDbBlockTableRecord
  2
GDimGGroup2
340
0
102
{BLKREFS
331
24C
102
}
  0
BLOCK_RECORD
  5
255
330
1
100
AcDbSymbolTableRecord
100
AcDbBlockTableRecord
  2
GDimGGroup3
340
0
102
{BLKREFS
331
256
102
}
  0
BLOCK_RECORD
  5
25F
330
1
100
AcDbSymbolTableRecord
100
AcDbBlockTableRecord
  2
GDimGGroup4
340
0
102
{BLKREFS
331
260
102
}
  0
BLOCK_RECORD
  5
269
330
1
100
AcDbSymbolTableRecord
100
AcDbBlockTableRecord
  2
GDimGGroup5
340
0
102
{BLKREFS
331
26A
102
}
  0
BLOCK_RECORD
  5
273
330
1
100
AcDbSymbolTableRecord
100
AcDbBlockTableRecord
  2
GDimGGroup6
340
0
102
{BLKREFS
331
274
102
}
  0
BLOCK_RECORD
  5
27E
330
1
100
AcDbSymbolTableRecord
100
AcDbBlockTableRecord
  2
SE3
340
0
102
{BLKREFS
331
27F
102
}
  0
BLOCK_RECORD
  5
28F
330
1
100
AcDbSymbolTableRecord
100
AcDbBlockTableRecord
  2
GDimGGroup7
340
0
102
{BLKREFS
331
290
102
}
  0
BLOCK_RECORD
  5
29A
330
1
100
AcDbSymbolTableRecord
100
AcDbBlockTableRecord
  2
GDimGGroup8
340
0
102
{BLKREFS
331
29B
102
}
  0
BLOCK_RECORD
  5
2A8
330
1
100
AcDbSymbolTableRecord
100
AcDbBlockTableRecord
  2
GDimGGroup9
340
0
102
{BLKREFS
331
2A9
102
}
  0
BLOCK_RECORD
  5
2B4
330
1
100
AcDbSymbolTableRecord
100
AcDbBlockTableRecord
  2
GDimGGroup10
340
0
102
{BLKREFS
331
2B5
102
}
  0
BLOCK_RECORD
  5
2BE
330
1
100
AcDbSymbolTableRecord
100
AcDbBlockTableRecord
  2
GDimGGroup11
340
0
102
{BLKREFS
331
2BF
102
}
  0
BLOCK_RECORD
  5
2C9
330
1
100
AcDbSymbolTableRecord
100
AcDbBlockTableRecord
  2
GDimGGroup12
340
0
102
{BLKREFS
331
2CA
102
}
  0
BLOCK_RECORD
  5
2D5
330
1
100
AcDbSymbolTableRecord
100
AcDbBlockTableRecord
  2
SE4
340
0
102
{BLKREFS
331
2D6
102
}
  0
BLOCK_RECORD
  5
2DD
330
1
100
AcDbSymbolTableRecord
100
AcDbBlockTableRecord
  2
SE5
340
0
102
{BLKREFS
331
2DE
102
}
  0
BLOCK_RECORD
  5
2E6
330
1
100
AcDbSymbolTableRecord
100
AcDbBlockTableRecord
  2
SE6
340
0
102
{BLKREFS
331
2E7
102
}
  0
BLOCK_RECORD
  5
2EE
330
1
100
AcDbSymbolTableRecord
100
AcDbBlockTableRecord
  2
SE7
340
0
102
{BLKREFS
331
2EF
102
}
  0
BLOCK_RECORD
  5
2FC
330
1
100
AcDbSymbolTableRecord
100
AcDbBlockTableRecord
  2
GDimGGroup13
340
0
102
{BLKREFS
331
2FD
102
}
  0
ENDTAB
  0
ENDSEC
  0
SECTION
  2
BLOCKS
  0
BLOCK
  5
20
330
1F
100
AcDbEntity
  8
0
100
AcDbBlockBegin
  2
*Model_Space
 70
     0
 10
0.0
 20
0.0
 30
0.0
  3
*Model_Space
  1

  0
ENDBLK
  5
21
330
1F
100
AcDbEntity
  8
0
100
AcDbBlockEnd
  0
BLOCK
  5
1C
330
1B
100
AcDbEntity
 67
     1
  8
0
100
AcDbBlockBegin
  2
*Paper_Space
 70
     0
 10
0.0
 20
0.0
 30
0.0
  3
*Paper_Space
  1

  0
ENDBLK
  5
1D
330
1B
100
AcDbEntity
 67
     1
  8
0
100
AcDbBlockEnd
  0
BLOCK
  5
1CA
330
1C2
100
AcDbEntity
  8
0
100
AcDbBlockBegin
  2
SEANNOT_GROUP
 70
     0
 10
0.0
 20
0.0
 30
0.0
  3
SEANNOT_GROUP
  1

  0
LWPOLYLINE
  5
1C4
330
1C2
100
AcDbEntity
  8
0
  6
Continuous
 62
     7
100
AcDbPolyline
 90
        2
 70
     0
 43
0.0
 10
1060.3645023497
 20
576.6829593599
 10
1314.3040082041
 20
627.5464017035
  0
HATCH
  5
1C5
330
1C2
100
AcDbEntity
  8
0
  6
Continuous
 62
     7
100
AcDbHatch
 10
0.0
 20
0.0
 30
0.0
210
0.0
220
0.0
230
1.0
  2
SOLID
 70
     1
 71
     0
 91
        1
 92
        1
 93
        3
 72
     1
 10
1291.557005352341
 20
618.9107852486477
 11
1314.304008204076
 21
627.5464017034749
 72
     1
 10
1314.304008204076
 20
627.5464017034749
 11
1289.98583260222
 21
626.7549816575795
 72
     1
 10
1289.98583260222
 20
626.7549816575795
 11
1291.557005352341
 21
618.9107852486477
 97
        0
 75
     0
 76
     1
 98
        0
  0
TEXT
  5
1C7
330
1C2
100
AcDbEntity
  8
0
  6
Continuous
 62
     7
100
AcDbText
 10
986.0833164437
 20
552.6829593599
 30
0.0
 40
16.0
  1
CAVO ALIMENTAZIONE
  7
SEACAD_arial_ttfB
 11
986.0833164437
 21
568.6829593599
 31
0.0
100
AcDbText
 73
     3
  0
TEXT
  5
1C8
330
1C2
100
AcDbEntity
  8
0
  6
Continuous
 62
     7
100
AcDbText
 10
986.0833164437
 20
528.6829593599
 30
0.0
 40
16.0
  1
POWER CABLE
  7
SEACAD_arial_ttfB
 11
986.0833164437
 21
544.6829593599
 31
0.0
100
AcDbText
 73
     3
  0
TEXT
  5
1C9
330
1C2
100
AcDbEntity
  8
0
  6
Continuous
 62
     7
100
AcDbText
 10
986.0833164437
 20
504.6829593599
 30
0.0
 40
16.0
  1
L = 1500 mm
  7
SEACAD_arial_ttfB
 11
986.0833164437
 21
520.6829593599
 31
0.0
100
AcDbText
 73
     3
  0
ENDBLK
  5
1CB
330
1C2
100
AcDbEntity
  8
0
100
AcDbBlockEnd
  0
BLOCK
  5
226
330
220
100
AcDbEntity
  8
0
100
AcDbBlockBegin
  2
SE
 70
     0
 10
0.0
 20
0.0
 30
0.0
  3
SE
  1

  0
LINE
  5
222
330
220
100
AcDbEntity
  8
Provvisorio
  6
Continuous
 62
     7
100
AcDbLine
 10
1352.9917157472
 20
820.645174119
 30
0.0
 11
1107.9917157472
 21
820.645174119
 31
0.0
  0
LINE
  5
223
330
220
100
AcDbEntity
  8
Provvisorio
  6
Continuous
 62
     7
100
AcDbLine
 10
1107.9917157472
 20
820.645174119
 30
0.0
 11
1107.9917157472
 21
1060.645174119
 31
0.0
  0
LINE
  5
224
330
220
100
AcDbEntity
  8
Provvisorio
  6
Continuous
 62
     7
100
AcDbLine
 10
1107.9917157472
 20
1060.645174119
 30
0.0
 11
1352.9917157472
 21
1060.645174119
 31
0.0
  0
LINE
  5
225
330
220
100
AcDbEntity
  8
Provvisorio
  6
Continuous
 62
     7
100
AcDbLine
 10
1352.9917157472
 20
1060.645174119
 30
0.0
 11
1352.9917157472
 21
820.645174119
 31
0.0
  0
ENDBLK
  5
227
330
220
100
AcDbEntity
  8
0
100
AcDbBlockEnd
  0
BLOCK
  5
230
330
228
100
AcDbEntity
  8
0
100
AcDbBlockBegin
  2
SE1
 70
     0
 10
0.0
 20
0.0
 30
0.0
  3
SE1
  1

  0
LINE
  5
22A
330
228
100
AcDbEntity
  8
0
  6
Continuous
 62
     7
100
AcDbLine
 10
1161.7417157472
 20
1090.8102376284
 30
0.0
 11
1160.4917157472
 21
1088.645174119
 31
0.0
  0
LINE
  5
22B
330
228
100
AcDbEntity
  8
0
  6
Continuous
 62
     7
100
AcDbLine
 10
1160.4917157472
 20
1088.645174119
 30
0.0
 11
1161.7417157472
 21
1086.4801106095
 31
0.0
  0
LINE
  5
22C
330
228
100
AcDbEntity
  8
0
  6
Continuous
 62
     7
100
AcDbLine
 10
1161.7417157472
 20
1086.4801106095
 30
0.0
 11
1164.2417157472
 21
1086.4801106095
 31
0.0
  0
LINE
  5
22D
330
228
100
AcDbEntity
  8
0
  6
Continuous
 62
     7
100
AcDbLine
 10
1164.2417157472
 20
1086.4801106095
 30
0.0
 11
1165.4917157472
 21
1088.645174119
 31
0.0
  0
LINE
  5
22E
330
228
100
AcDbEntity
  8
0
  6
Continuous
 62
     7
100
AcDbLine
 10
1165.4917157472
 20
1088.645174119
 30
0.0
 11
1164.2417157472
 21
1090.8102376284
 31
0.0
  0
LINE
  5
22F
330
228
100
AcDbEntity
  8
0
  6
Continuous
 62
     7
100
AcDbLine
 10
1164.2417157472
 20
1090.8102376284
 30
0.0
 11
1161.7417157472
 21
1090.8102376284
 31
0.0
  0
ENDBLK
  5
231
330
228
100
AcDbEntity
  8
0
100
AcDbBlockEnd
  0
BLOCK
  5
235
330
232
100
AcDbEntity
  8
0
100
AcDbBlockBegin
  2
SE2
 70
     0
 10
0.0
 20
0.0
 30
0.0
  3
SE2
  1

  0
ARC
  5
234
330
232
100
AcDbEntity
  8
0
  6
Continuous
 62
     7
100
AcDbCircle
 10
-216.2887493554
 20
742.645174119
 30
0.0
 40
140.0
100
AcDbArc
 50
123.1223413624
 51
56.8776586376
  0
ENDBLK
  5
236
330
232
100
AcDbEntity
  8
0
100
AcDbBlockEnd
  0
BLOCK
  5
23F
330
237
100
AcDbEntity
  8
0
100
AcDbBlockBegin
  2
GDimGGroup
 70
     0
 10
0.0
 20
0.0
 30
0.0
  3
GDimGGroup
  1

  0
HATCH
  5
239
330
237
100
AcDbEntity
  8
0
  6
Continuous
 62
     7
100
AcDbHatch
 10
0.0
 20
0.0
 30
0.0
210
0.0
220
0.0
230
1.0
  2
SOLID
 70
     1
 71
     0
 91
        1
 92
        1
 93
        3
 72
     1
 10
1486.492190834225
 20
1415.340471970074
 11
1482.242190913698
 21
1440.840471493236
 72
     1
 10
1482.242190913698
 20
1440.840471493236
 11
1477.99219099317
 21
1415.340471970074
 72
     1
 10
1477.99219099317
 20
1415.340471970074
 11
1486.492190834225
 21
1415.340471970074
 97
        0
 75
     0
 76
     1
 98
        0
  0
HATCH
  5
23A
330
237
100
AcDbEntity
  8
0
  6
Continuous
 62
     7
100
AcDbHatch
 10
0.0
 20
0.0
 30
0.0
210
0.0
220
0.0
230
1.0
  2
SOLID
 70
     1
 71
     0
 91
        1
 92
        1
 93
        3
 72
     1
 10
1486.742191030423
 20
622.6451787670775
 11
1477.742190796972
 21
622.6451787670775
 72
     1
 10
1477.742190796972
 20
622.6451787670775
 11
1482.242190913698
 21
595.6451780667229
 72
     1
 10
1482.242190913698
 20
595.6451780667229
 11
1486.742191030423
 21
622.6451787670775
 97
        0
 75
     0
 76
     1
 98
        0
  0
LINE
  5
23B
330
237
100
AcDbEntity
  8
0
  6
Continuous
 62
     7
100
AcDbLine
 10
1190.9305394454
 20
1440.8404714932
 30
0.0
 11
1494.9921906753
 21
1440.8404714932
 31
0.0
  0
LINE
  5
23C
330
237
100
AcDbEntity
  8
0
  6
Continuous
 62
     7
100
AcDbLine
 10
1355.7417155088
 20
595.645174119
 30
0.0
 11
1494.9921906753
 21
595.645174119
 31
0.0
  0
LINE
  5
23D
330
237
100
AcDbEntity
  8
0
  6
Continuous
 62
     7
100
AcDbLine
 10
1482.2421909137
 20
1440.8404714932
 30
0.0
 11
1482.2421909137
 21
595.6451780667
 31
0.0
  0
TEXT
  5
23E
330
237
100
AcDbEntity
  8
0
  6
Continuous
 62
     7
100
AcDbText
 10
1475.8671909137
 20
988.3080421713
 30
0.0
 40
25.5
  1
845
 50
90.0
  7
SEACAD_arial_ttf
 11
1450.3671909137
 21
988.3080421713
 31
0.0
100
AcDbText
 73
     3
  0
ENDBLK
  5
240
330
237
100
AcDbEntity
  8
0
100
AcDbBlockEnd
  0
BLOCK
  5
249
330
241
100
AcDbEntity
  8
0
100
AcDbBlockBegin
  2
GDimGGroup1
 70
     0
 10
0.0
 20
0.0
 30
0.0
  3
GDimGGroup1
  1

  0
HATCH
  5
243
330
241
100
AcDbEntity
  8
Provvisorio
  6
Continuous
 62
     7
100
AcDbHatch
 10
0.0
 20
0.0
 30
0.0
210
0.0
220
0.0
230
1.0
  2
SOLID
 70
     1
 71
     0
 91
        1
 92
        1
 93
        3
 72
     1
 10
1327.491716224073
 20
1547.722298635137
 11
1327.491716224073
 21
1539.222298794083
 72
     1
 10
1327.491716224073
 20
1539.222298794083
 11
1352.991715747236
 21
1543.47229871461
 72
     1
 10
1352.991715747236
 20
1543.47229871461
 11
1327.491716224073
 21
1547.722298635137
 97
        0
 75
     0
 76
     1
 98
        0
  0
HATCH
  5
244
330
241
100
AcDbEntity
  8
Provvisorio
  6
Continuous
 62
     7
100
AcDbHatch
 10
0.0
 20
0.0
 30
0.0
210
0.0
220
0.0
230
1.0
  2
SOLID
 70
     1
 71
     0
 91
        1
 92
        1
 93
        3
 72
     1
 10
836.9917336137282
 20
1547.972298831336
 11
809.9917329133737
 21
1543.47229871461
 72
     1
 10
809.9917329133737
 20
1543.47229871461
 11
836.9917336137282
 21
1538.972298597884
 72
     1
 10
836.9917336137282
 20
1538.972298597884
 11
836.9917336137282
 21
1547.972298831336
 97
        0
 75
     0
 76
     1
 98
        0
  0
LINE
  5
245
330
241
100
AcDbEntity
  8
Provvisorio
  6
Continuous
 62
     7
100
AcDbLine
 10
1352.9917157472
 20
633.3951738805
 30
0.0
 11
1352.9917157472
 21
1556.2222984762
 31
0.0
  0
LINE
  5
246
330
241
100
AcDbEntity
  8
Provvisorio
  6
Continuous
 62
     7
100
AcDbLine
 10
809.9917157472
 20
1042.8951738805
 30
0.0
 11
809.9917157472
 21
1556.2222984762
 31
0.0
  0
LINE
  5
247
330
241
100
AcDbEntity
  8
Provvisorio
  6
Continuous
 62
     7
100
AcDbLine
 10
1352.9917157472
 20
1543.4722987146
 30
0.0
 11
809.9917329134
 21
1543.4722987146
 31
0.0
  0
TEXT
  5
248
330
241
100
AcDbEntity
  8
Provvisorio
  6
Continuous
 62
     7
100
AcDbText
 10
1051.5569417216
 20
1549.8472987146
 30
0.0
 40
25.5
  1
543
  7
SEACAD_arial_ttf
 11
1051.5569417216
 21
1575.3472987146
 31
0.0
100
AcDbText
 73
     3
  0
ENDBLK
  5
24A
330
241
100
AcDbEntity
  8
0
100
AcDbBlockEnd
  0
BLOCK
  5
253
330
24B
100
AcDbEntity
  8
0
100
AcDbBlockBegin
  2
GDimGGroup2
 70
     0
 10
0.0
 20
0.0
 30
0.0
  3
GDimGGroup2
  1

  0
HATCH
  5
24D
330
24B
100
AcDbEntity
  8
0
  6
Continuous
 62
     7
100
AcDbHatch
 10
0.0
 20
0.0
 30
0.0
210
0.0
220
0.0
230
1.0
  2
SOLID
 70
     1
 71
     0
 91
        1
 92
        1
 93
        3
 72
     1
 10
582.0063999885544
 20
1117.145174595805
 11
577.7564000680273
 21
1142.645174118968
 72
     1
 10
577.7564000680273
 20
1142.645174118968
 11
573.5064001475002
 21
1117.145174595805
 72
     1
 10
573.5064001475002
 20
1117.145174595805
 11
582.0063999885544
 21
1117.145174595805
 97
        0
 75
     0
 76
     1
 98
        0
  0
HATCH
  5
24E
330
24B
100
AcDbEntity
  8
0
  6
Continuous
 62
     7
100
AcDbHatch
 10
0.0
 20
0.0
 30
0.0
210
0.0
220
0.0
230
1.0
  2
SOLID
 70
     1
 71
     0
 91
        1
 92
        1
 93
        3
 72
     1
 10
582.2564001847531
 20
622.6451838792286
 11
573.2563999513015
 21
622.6451838792286
 72
     1
 10
573.2563999513015
 20
622.6451838792286
 11
577.7564000680273
 21
595.645183178874
 72
     1
 10
577.7564000680273
 20
595.645183178874
 11
582.2564001847531
 21
622.6451838792286
 97
        0
 75
     0
 76
     1
 98
        0
  0
LINE
  5
24F
330
24B
100
AcDbEntity
  8
0
  6
Continuous
 62
     7
100
AcDbLine
 10
354.3541681363
 20
1142.645174119
 30
0.0
 11
590.5063998296
 21
1142.645174119
 31
0.0
  0
LINE
  5
250
330
24B
100
AcDbEntity
  8
0
  6
Continuous
 62
     7
100
AcDbLine
 10
391.8541681363
 20
595.645174119
 30
0.0
 11
590.5063998296
 21
595.645174119
 31
0.0
  0
LINE
  5
251
330
24B
100
AcDbEntity
  8
0
  6
Continuous
 62
     7
100
AcDbLine
 10
577.756400068
 20
1142.645174119
 30
0.0
 11
577.756400068
 21
595.6451831789
 31
0.0
  0
TEXT
  5
252
330
24B
100
AcDbEntity
  8
0
  6
Continuous
 62
     7
100
AcDbText
 10
571.381400068
 20
839.2103960402
 30
0.0
 40
25.5
  1
547
 50
90.0
  7
SEACAD_arial_ttf
 11
545.881400068
 21
839.2103960402
 31
0.0
100
AcDbText
 73
     3
  0
ENDBLK
  5
254
330
24B
100
AcDbEntity
  8
0
100
AcDbBlockEnd
  0
BLOCK
  5
25D
330
255
100
AcDbEntity
  8
0
100
AcDbBlockBegin
  2
GDimGGroup3
 70
     0
 10
0.0
 20
0.0
 30
0.0
  3
GDimGGroup3
  1

  0
HATCH
  5
257
330
255
100
AcDbEntity
  8
0
  6
Continuous
 62
     7
100
AcDbHatch
 10
0.0
 20
0.0
 30
0.0
210
0.0
220
0.0
230
1.0
  2
SOLID
 70
     1
 71
     0
 91
        1
 92
        1
 93
        3
 72
     1
 10
164.6041678979223
 20
440.482254677109
 11
164.6041678979223
 21
448.9822545181634
 72
     1
 10
164.6041678979223
 20
448.9822545181634
 11
139.1041683747594
 21
444.7322545976362
 72
     1
 10
139.1041683747594
 20
444.7322545976362
 11
164.6041678979223
 21
440.482254677109
 97
        0
 75
     0
 76
     1
 98
        0
  0
HATCH
  5
258
330
255
100
AcDbEntity
  8
0
  6
Continuous
 62
     7
100
AcDbHatch
 10
0.0
 20
0.0
 30
0.0
210
0.0
220
0.0
230
1.0
  2
SOLID
 70
     1
 71
     0
 91
        1
 92
        1
 93
        3
 72
     1
 10
392.1041688664977
 20
440.2322544809105
 11
419.1041695668523
 21
444.7322545976362
 72
     1
 10
419.1041695668523
 20
444.7322545976362
 11
392.1041688664977
 21
449.2322547143619
 72
     1
 10
392.1041688664977
 20
449.2322547143619
 11
392.1041688664977
 21
440.2322544809105
 97
        0
 75
     0
 76
     1
 98
        0
  0
LINE
  5
259
330
255
100
AcDbEntity
  8
0
  6
Continuous
 62
     7
100
AcDbLine
 10
139.1041683748
 20
1017.3951743574
 30
0.0
 11
139.1041683748
 21
431.9822548361
 31
0.0
  0
LINE
  5
25A
330
255
100
AcDbEntity
  8
0
  6
Continuous
 62
     7
100
AcDbLine
 10
419.1041683748
 20
1017.3951743574
 30
0.0
 11
419.1041683748
 21
431.9822548361
 31
0.0
  0
LINE
  5
25B
330
255
100
AcDbEntity
  8
0
  6
Continuous
 62
     7
100
AcDbLine
 10
139.1041683748
 20
444.7322545976
 30
0.0
 11
419.1041695669
 21
444.7322545976
 31
0.0
  0
TEXT
  5
25C
330
255
100
AcDbEntity
  8
0
  6
Continuous
 62
     7
100
AcDbText
 10
249.1693863621
 20
451.1072545976
 30
0.0
 40
25.5
  1
280
  7
SEACAD_arial_ttf
 11
249.1693863621
 21
476.6072545976
 31
0.0
100
AcDbText
 73
     3
  0
ENDBLK
  5
25E
330
255
100
AcDbEntity
  8
0
100
AcDbBlockEnd
  0
BLOCK
  5
267
330
25F
100
AcDbEntity
  8
0
100
AcDbBlockBegin
  2
GDimGGroup4
 70
     0
 10
0.0
 20
0.0
 30
0.0
  3
GDimGGroup4
  1

  0
HATCH
  5
261
330
25F
100
AcDbEntity
  8
0
  6
Continuous
 62
     7
100
AcDbHatch
 10
0.0
 20
0.0
 30
0.0
210
0.0
220
0.0
230
1.0
  2
SOLID
 70
     1
 71
     0
 91
        1
 92
        1
 93
        3
 72
     1
 10
-502.1513243301346
 20
628.1451736421309
 11
-497.9013244096075
 21
602.645174118968
 72
     1
 10
-497.9013244096075
 20
602.645174118968
 11
-493.6513244890803
 21
628.1451736421309
 72
     1
 10
-493.6513244890803
 20
628.1451736421309
 11
-502.1513243301346
 21
628.1451736421309
 97
        0
 75
     0
 76
     1
 98
        0
  0
HATCH
  5
262
330
25F
100
AcDbEntity
  8
0
  6
Continuous
 62
     7
100
AcDbHatch
 10
0.0
 20
0.0
 30
0.0
210
0.0
220
0.0
230
1.0
  2
SOLID
 70
     1
 71
     0
 91
        1
 92
        1
 93
        3
 72
     1
 10
-502.4013245263332
 20
1118.645156252476
 11
-493.4013242928817
 21
1118.645156252476
 72
     1
 10
-493.4013242928817
 20
1118.645156252476
 11
-497.9013244096074
 21
1145.64515695283
 72
     1
 10
-497.9013244096074
 20
1145.64515695283
 11
-502.4013245263332
 21
1118.645156252476
 97
        0
 75
     0
 76
     1
 98
        0
  0
LINE
  5
263
330
25F
100
AcDbEntity
  8
0
  6
Continuous
 62
     7
100
AcDbLine
 10
-229.038749117
 20
602.645174119
 30
0.0
 11
-510.6513241712
 21
602.645174119
 31
0.0
  0
LINE
  5
264
330
25F
100
AcDbEntity
  8
0
  6
Continuous
 62
     7
100
AcDbLine
 10
-229.038749117
 20
1145.645174119
 30
0.0
 11
-510.6513241712
 21
1145.645174119
 31
0.0
  0
LINE
  5
265
330
25F
100
AcDbEntity
  8
0
  6
Continuous
 62
     7
100
AcDbLine
 10
-497.9013244096
 20
602.645174119
 30
0.0
 11
-497.9013244096
 21
1145.6451569528
 31
0.0
  0
TEXT
  5
266
330
25F
100
AcDbEntity
  8
0
  6
Continuous
 62
     7
100
AcDbText
 10
-504.2763244096
 20
844.2103829272
 30
0.0
 40
25.5
  1
543
 50
90.0
  7
SEACAD_arial_ttf
 11
-529.7763244096
 21
844.2103829272
 31
0.0
100
AcDbText
 73
     3
  0
ENDBLK
  5
268
330
25F
100
AcDbEntity
  8
0
100
AcDbBlockEnd
  0
BLOCK
  5
271
330
269
100
AcDbEntity
  8
0
100
AcDbBlockBegin
  2
GDimGGroup5
 70
     0
 10
0.0
 20
0.0
 30
0.0
  3
GDimGGroup5
  1

  0
HATCH
  5
26B
330
269
100
AcDbEntity
  8
0
  6
Continuous
 62
     7
100
AcDbHatch
 10
0.0
 20
0.0
 30
0.0
210
0.0
220
0.0
230
1.0
  2
SOLID
 70
     1
 71
     0
 91
        1
 92
        1
 93
        3
 72
     1
 10
-291.7887498322759
 20
1209.362627549064
 11
-317.2887493554388
 21
1205.112627628537
 72
     1
 10
-317.2887493554388
 20
1205.112627628537
 11
-291.7887498322759
 21
1200.86262770801
 72
     1
 10
-291.7887498322759
 20
1200.86262770801
 11
-291.7887498322759
 21
1209.362627549065
 97
        0
 75
     0
 76
     1
 98
        0
  0
HATCH
  5
26C
330
269
100
AcDbEntity
  8
0
  6
Continuous
 62
     7
100
AcDbHatch
 10
0.0
 20
0.0
 30
0.0
210
0.0
220
0.0
230
1.0
  2
SOLID
 70
     1
 71
     0
 91
        1
 92
        1
 93
        3
 72
     1
 10
-142.2887430224453
 20
1209.612627745263
 11
-142.2887430224453
 21
1200.612627511812
 72
     1
 10
-142.2887430224453
 20
1200.612627511812
 11
-115.2887423220907
 21
1205.112627628537
 72
     1
 10
-115.2887423220907
 20
1205.112627628537
 11
-142.2887430224453
 21
1209.612627745263
 97
        0
 75
     0
 76
     1
 98
        0
  0
LINE
  5
26D
330
269
100
AcDbEntity
  8
0
  6
Continuous
 62
     7
100
AcDbLine
 10
-317.2887493554
 20
1158.3951738805
 30
0.0
 11
-317.2887493554
 21
1217.8626273901
 31
0.0
  0
LINE
  5
26E
330
269
100
AcDbEntity
  8
0
  6
Continuous
 62
     7
100
AcDbLine
 10
-115.2887493554
 20
1158.3951738805
 30
0.0
 11
-115.2887493554
 21
1217.8626273901
 31
0.0
  0
LINE
  5
26F
330
269
100
AcDbEntity
  8
0
  6
Continuous
 62
     7
100
AcDbLine
 10
-317.2887493554
 20
1205.1126276285
 30
0.0
 11
-115.2887423221
 21
1205.1126276285
 31
0.0
  0
TEXT
  5
270
330
269
100
AcDbEntity
  8
0
  6
Continuous
 62
     7
100
AcDbText
 10
-246.2235284475
 20
1211.4876276285
 30
0.0
 40
25.5
  1
202
  7
SEACAD_arial_ttf
 11
-246.2235284475
 21
1236.9876276285
 31
0.0
100
AcDbText
 73
     3
  0
ENDBLK
  5
272
330
269
100
AcDbEntity
  8
0
100
AcDbBlockEnd
  0
BLOCK
  5
27C
330
273
100
AcDbEntity
  8
0
100
AcDbBlockBegin
  2
GDimGGroup6
 70
     0
 10
0.0
 20
0.0
 30
0.0
  3
GDimGGroup6
  1

  0
HATCH
  5
275
330
273
100
AcDbEntity
  8
0
  6
Continuous
 62
     7
100
AcDbHatch
 10
0.0
 20
0.0
 30
0.0
210
0.0
220
0.0
230
1.0
  2
SOLID
 70
     1
 71
     0
 91
        1
 92
        1
 93
        3
 72
     1
 10
191.1041688515966
 20
1209.362626178157
 11
191.1041688515966
 21
1200.862626337103
 72
     1
 10
191.1041688515966
 20
1200.862626337103
 11
216.6041683747594
 21
1205.11262625763
 72
     1
 10
216.6041683747594
 20
1205.11262625763
 11
191.1041688515966
 21
1209.362626178157
 97
        0
 75
     0
 76
     1
 98
        0
  0
HATCH
  5
276
330
273
100
AcDbEntity
  8
0
  6
Continuous
 62
     7
100
AcDbHatch
 10
0.0
 20
0.0
 30
0.0
210
0.0
220
0.0
230
1.0
  2
SOLID
 70
     1
 71
     0
 91
        1
 92
        1
 93
        3
 72
     1
 10
368.604169075114
 20
1209.612626374356
 11
341.6041683747594
 21
1205.11262625763
 72
     1
 10
341.6041683747594
 20
1205.11262625763
 11
368.604169075114
 21
1200.612626140904
 72
     1
 10
368.604169075114
 20
1200.612626140904
 11
368.604169075114
 21
1209.612626374356
 97
        0
 75
     0
 76
     1
 98
        0
  0
LINE
  5
277
330
273
100
AcDbEntity
  8
0
  6
Continuous
 62
     7
100
AcDbLine
 10
216.6041683748
 20
1155.3951738805
 30
0.0
 11
216.6041683748
 21
1217.8626260192
 31
0.0
  0
LINE
  5
278
330
273
100
AcDbEntity
  8
0
  6
Continuous
 62
     7
100
AcDbLine
 10
341.6041683748
 20
1155.3951738805
 30
0.0
 11
341.6041683748
 21
1217.8626260192
 31
0.0
  0
LINE
  5
279
330
273
100
AcDbEntity
  8
0
  6
Continuous
 62
     7
100
AcDbLine
 10
162.6041669741
 20
1205.1126262576
 30
0.0
 11
216.6041683748
 21
1205.1126262576
 31
0.0
  0
LINE
  5
27A
330
273
100
AcDbEntity
  8
0
  6
Continuous
 62
     7
100
AcDbLine
 10
341.6041683748
 20
1205.1126262576
 30
0.0
 11
395.6041697755
 21
1205.1126262576
 31
0.0
  0
TEXT
  5
27B
330
273
100
AcDbEntity
  8
0
  6
Continuous
 62
     7
100
AcDbText
 10
249.1693857661
 20
1211.4876262576
 30
0.0
 40
25.5
  1
125
  7
SEACAD_arial_ttf
 11
249.1693857661
 21
1236.9876262576
 31
0.0
100
AcDbText
 73
     3
  0
ENDBLK
  5
27D
330
273
100
AcDbEntity
  8
0
100
AcDbBlockEnd
  0
BLOCK
  5
28D
330
27E
100
AcDbEntity
  8
0
100
AcDbBlockBegin
  2
SE3
 70
     0
 10
0.0
 20
0.0
 30
0.0
  3
SE3
  1

  0
LINE
  5
280
330
27E
100
AcDbEntity
  8
0
  6
Continuous
 62
     7
100
AcDbLine
 10
1315.8797856438
 20
642.0337801931
 30
0.0
 11
1451.0594212771
 21
560.4499447953
 31
0.0
  0
ARC
  5
281
330
27E
100
AcDbEntity
  8
0
  6
Continuous
 62
     7
100
AcDbCircle
 10
1423.5251376045
 20
514.8272498565
 30
0.0
 40
53.28758833757175
100
AcDbArc
 50
3.1214520283
 51
58.8881098959
  0
ARC
  5
282
330
27E
100
AcDbEntity
  8
0
  6
Continuous
 62
     7
100
AcDbCircle
 10
1442.8353473952
 20
515.8803046965
 30
0.0
 40
33.94868643859193
100
AcDbArc
 50
278.41311562
 51
3.1214520283
  0
ARC
  5
283
330
27E
100
AcDbEntity
  8
0
  6
Continuous
 62
     7
100
AcDbCircle
 10
1432.6376227174
 20
584.8299422752
 30
0.0
 40
103.6483715946143
100
AcDbArc
 50
262.7810109952
 51
278.41311562
  0
ARC
  5
284
330
27E
100
AcDbEntity
  8
0
  6
Continuous
 62
     7
100
AcDbCircle
 10
1423.6043653485
 20
513.5144348239
 30
0.0
 40
31.76303691681107
100
AcDbArc
 50
198.753556653
 51
262.7810109952
  0
ARC
  5
285
330
27E
100
AcDbEntity
  8
0
  6
Continuous
 62
     7
100
AcDbCircle
 10
1622.5361443566
 20
581.0564464092
 30
0.0
 40
241.8482006679087
100
AcDbArc
 50
188.3641820017
 51
198.753556653
  0
ARC
  5
286
330
27E
100
AcDbEntity
  8
0
  6
Continuous
 62
     7
100
AcDbCircle
 10
1399.3889687339
 20
548.2474657565
 30
0.0
 40
16.3019943157473
100
AcDbArc
 50
93.1703856465
 51
188.3641820017
  0
ARC
  5
287
330
27E
100
AcDbEntity
  8
0
  6
Continuous
 62
     7
100
AcDbCircle
 10
1401.3388752866
 20
513.0443764013
 30
0.0
 40
51.55904518099992
100
AcDbArc
 50
37.150663069
 51
93.1703856465
  0
ARC
  5
288
330
27E
100
AcDbEntity
  8
0
  6
Continuous
 62
     7
100
AcDbCircle
 10
1362.9405663899
 20
483.9505539305
 30
0.0
 40
99.7345641931385
100
AcDbArc
 50
19.1092163772
 51
37.150663069
  0
ARC
  5
289
330
27E
100
AcDbEntity
  8
0
  6
Continuous
 62
     7
100
AcDbCircle
 10
1442.3899315605
 20
511.4766764735
 30
0.0
 40
15.65193193018126
100
AcDbArc
 50
207.3601156431
 51
19.1092163772
  0
ARC
  5
28A
330
27E
100
AcDbEntity
  8
0
  6
Continuous
 62
     7
100
AcDbCircle
 10
1396.2223211257
 20
487.5864184884
 30
0.0
 40
36.33068708673954
100
AcDbArc
 50
27.3601156431
 51
74.1744520051
  0
ARC
  5
28B
330
27E
100
AcDbEntity
  8
0
  6
Continuous
 62
     7
100
AcDbCircle
 10
1408.0974835418
 20
529.4810415758
 30
0.0
 40
7.214449565316518
100
AcDbArc
 50
27.3601156431
 51
254.1744520051
  0
ARC
  5
28C
330
27E
100
AcDbEntity
  8
0
  6
Continuous
 62
     7
100
AcDbCircle
 10
1430.6381793228
 20
541.1451288504
 30
0.0
 40
18.16534354336932
100
AcDbArc
 50
207.3601156431
 51
254.1744520051
  0
ENDBLK
  5
28E
330
27E
100
AcDbEntity
  8
0
100
AcDbBlockEnd
  0
BLOCK
  5
298
330
28F
100
AcDbEntity
  8
0
100
AcDbBlockBegin
  2
GDimGGroup7
 70
     0
 10
0.0
 20
0.0
 30
0.0
  3
GDimGGroup7
  1

  0
HATCH
  5
291
330
28F
100
AcDbEntity
  8
0
  6
Continuous
 62
     7
100
AcDbHatch
 10
0.0
 20
0.0
 30
0.0
210
0.0
220
0.0
230
1.0
  2
SOLID
 70
     1
 71
     0
 91
        1
 92
        1
 93
        3
 72
     1
 10
777.6063310882633
 20
570.1451745958052
 11
786.1063309293176
 21
570.1451745958052
 72
     1
 10
786.1063309293176
 20
570.1451745958052
 11
781.8563310087904
 21
595.645174118968
 72
     1
 10
781.8563310087904
 20
595.645174118968
 11
777.6063310882633
 21
570.1451745958052
 97
        0
 75
     0
 76
     1
 98
        0
  0
HATCH
  5
292
330
28F
100
AcDbEntity
  8
0
  6
Continuous
 62
     7
100
AcDbHatch
 10
0.0
 20
0.0
 30
0.0
210
0.0
220
0.0
230
1.0
  2
SOLID
 70
     1
 71
     0
 91
        1
 92
        1
 93
        3
 72
     1
 10
777.3563308920646
 20
647.6451748193226
 11
781.8563310087904
 21
620.645174118968
 72
     1
 10
781.8563310087904
 20
620.645174118968
 11
786.3563311255162
 21
647.6451748193226
 72
     1
 10
786.3563311255162
 20
647.6451748193226
 11
777.3563308920646
 21
647.6451748193226
 97
        0
 75
     0
 76
     1
 98
        0
  0
LINE
  5
293
330
28F
100
AcDbEntity
  8
0
  6
Continuous
 62
     7
100
AcDbLine
 10
850.2417159857
 20
595.645174119
 30
0.0
 11
769.1063312472
 21
595.645174119
 31
0.0
  0
LINE
  5
294
330
28F
100
AcDbEntity
  8
0
  6
Continuous
 62
     7
100
AcDbLine
 10
840.2417159857
 20
620.645174119
 30
0.0
 11
769.1063312472
 21
620.645174119
 31
0.0
  0
LINE
  5
295
330
28F
100
AcDbEntity
  8
0
  6
Continuous
 62
     7
100
AcDbLine
 10
781.8563310088
 20
541.6451727183
 30
0.0
 11
781.8563310088
 21
595.645174119
 31
0.0
  0
LINE
  5
296
330
28F
100
AcDbEntity
  8
0
  6
Continuous
 62
     7
100
AcDbLine
 10
781.8563310088
 20
620.645174119
 30
0.0
 11
781.8563310088
 21
768.516742918
 31
0.0
  0
TEXT
  5
297
330
28F
100
AcDbEntity
  8
0
  6
Continuous
 62
     7
100
AcDbText
 10
775.4813310088
 20
719.6787013621
 30
0.0
 40
25.5
  1
25
 50
90.0
  7
SEACAD_arial_ttf
 11
749.9813310088
 21
719.6787013621
 31
0.0
100
AcDbText
 73
     3
  0
ENDBLK
  5
299
330
28F
100
AcDbEntity
  8
0
100
AcDbBlockEnd
  0
BLOCK
  5
2A6
330
29A
100
AcDbEntity
  8
0
100
AcDbBlockBegin
  2
GDimGGroup8
 70
     0
 10
0.0
 20
0.0
 30
0.0
  3
GDimGGroup8
  1

  0
HATCH
  5
29C
330
29A
100
AcDbEntity
  8
Provvisorio
  6
Continuous
 62
     7
100
AcDbHatch
 10
0.0
 20
0.0
 30
0.0
210
0.0
220
0.0
230
1.0
  2
SOLID
 70
     1
 71
     0
 91
        1
 92
        1
 93
        3
 72
     1
 10
794.4917162240729
 20
901.1015981665176
 11
819.9917157472357
 21
905.3515980870447
 72
     1
 10
819.9917157472357
 20
905.3515980870447
 11
794.4917162240729
 21
909.6015980075719
 72
     1
 10
794.4917162240729
 20
909.6015980075719
 11
794.4917162240729
 21
901.1015981665176
 97
        0
 75
     0
 76
     1
 98
        0
  0
HATCH
  5
29D
330
29A
100
AcDbEntity
  8
Provvisorio
  6
Continuous
 62
     7
100
AcDbHatch
 10
0.0
 20
0.0
 30
0.0
210
0.0
220
0.0
230
1.0
  2
SOLID
 70
     1
 71
     0
 91
        1
 92
        1
 93
        3
 72
     1
 10
1106.991716447591
 20
900.851597970319
 11
1106.991716447591
 21
909.8515982037705
 72
     1
 10
1106.991716447591
 20
909.8515982037705
 11
1079.991715747236
 21
905.3515980870447
 72
     1
 10
1079.991715747236
 20
905.3515980870447
 11
1106.991716447591
 21
900.851597970319
 97
        0
 75
     0
 76
     1
 98
        0
  0
LINE
  5
29E
330
29A
100
AcDbEntity
  8
Provvisorio
  6
Continuous
 62
     7
100
AcDbLine
 10
819.9917157472
 20
931.8951743574
 30
0.0
 11
819.9917157472
 21
892.6015983255
 31
0.0
  0
LINE
  5
29F
330
29A
100
AcDbEntity
  8
Provvisorio
  6
Continuous
 62
     7
100
AcDbLine
 10
1079.9917157472
 20
931.8951743574
 30
0.0
 11
1079.9917157472
 21
892.6015983255
 31
0.0
  0
LINE
  5
2A0
330
29A
100
AcDbEntity
  8
Provvisorio
  6
Continuous
 62
     7
100
AcDbLine
 10
765.9917143465
 20
905.351598087
 30
0.0
 11
819.9917157472
 21
905.351598087
 31
0.0
  0
LINE
  5
2A1
330
29A
100
AcDbEntity
  8
Provvisorio
  6
Continuous
 62
     7
100
AcDbLine
 10
1079.9917157472
 20
905.351598087
 30
0.0
 11
1133.9917171479
 21
905.351598087
 31
0.0
  0
TEXT
  5
2A2
330
29A
100
AcDbEntity
  8
Provvisorio
  6
Continuous
 62
     7
100
AcDbText
 10
972.3474890109
 20
911.726598087
 30
0.0
 40
25.5
  1
260
  7
SEACAD_arial_ttf
 11
972.3474890109
 21
937.226598087
 31
0.0
100
AcDbText
 73
     3
  0
TEXT
  5
2A4
330
29A
100
AcDbEntity
  8
Provvisorio
  6
Continuous
 62
     7
100
AcDbText
 10
867.7663677294
 20
911.726598087
 30
0.0
 40
25.5
  1
O
  7
SEACAD_Solid_Edge_ANSI1_Symbols
 11
867.7663677294
 21
937.226598087
 31
0.0
100
AcDbText
 73
     3
  0
TEXT
  5
2A5
330
29A
100
AcDbEntity
  8
Provvisorio
  6
Continuous
 62
     7
100
AcDbText
 10
896.8453150979
 20
911.726598087
 30
0.0
 40
25.5
  1
 int 
  7
SEACAD_arial_ttf
 11
896.8453150979
 21
937.226598087
 31
0.0
100
AcDbText
 73
     3
  0
ENDBLK
  5
2A7
330
29A
100
AcDbEntity
  8
0
100
AcDbBlockEnd
  0
BLOCK
  5
2B2
330
2A8
100
AcDbEntity
  8
0
100
AcDbBlockBegin
  2
GDimGGroup9
 70
     0
 10
0.0
 20
0.0
 30
0.0
  3
GDimGGroup9
  1

  0
HATCH
  5
2AA
330
2A8
100
AcDbEntity
  8
Provvisorio
  6
Continuous
 62
     7
100
AcDbHatch
 10
0.0
 20
0.0
 30
0.0
210
0.0
220
0.0
230
1.0
  2
SOLID
 70
     1
 71
     0
 91
        1
 92
        1
 93
        3
 72
     1
 10
777.6063269159382
 20
807.1451745958053
 11
786.1063267569924
 21
807.1451745958053
 72
     1
 10
786.1063267569924
 20
807.1451745958053
 11
781.8563268364653
 21
832.6451741189682
 72
     1
 10
781.8563268364653
 20
832.6451741189682
 11
777.6063269159382
 21
807.1451745958053
 97
        0
 75
     0
 76
     1
 98
        0
  0
HATCH
  5
2AB
330
2A8
100
AcDbEntity
  8
Provvisorio
  6
Continuous
 62
     7
100
AcDbHatch
 10
0.0
 20
0.0
 30
0.0
210
0.0
220
0.0
230
1.0
  2
SOLID
 70
     1
 71
     0
 91
        1
 92
        1
 93
        3
 72
     1
 10
777.3563267197395
 20
1059.645174819323
 11
781.8563268364653
 21
1032.645174118968
 72
     1
 10
781.8563268364653
 20
1032.645174118968
 11
786.3563269531911
 21
1059.645174819323
 72
     1
 10
786.3563269531911
 20
1059.645174819323
 11
777.3563267197395
 21
1059.645174819323
 97
        0
 75
     0
 76
     1
 98
        0
  0
LINE
  5
2AC
330
2A8
100
AcDbEntity
  8
Provvisorio
  6
Continuous
 62
     7
100
AcDbLine
 10
830.2417159857
 20
832.645174119
 30
0.0
 11
769.1063270749
 21
832.645174119
 31
0.0
  0
LINE
  5
2AD
330
2A8
100
AcDbEntity
  8
Provvisorio
  6
Continuous
 62
     7
100
AcDbLine
 10
805.2417159857
 20
1032.645174119
 30
0.0
 11
769.1063270749
 21
1032.645174119
 31
0.0
  0
LINE
  5
2AE
330
2A8
100
AcDbEntity
  8
Provvisorio
  6
Continuous
 62
     7
100
AcDbLine
 10
781.8563268365
 20
778.6451727183
 30
0.0
 11
781.8563268365
 21
832.645174119
 31
0.0
  0
LINE
  5
2AF
330
2A8
100
AcDbEntity
  8
Provvisorio
  6
Continuous
 62
     7
100
AcDbLine
 10
781.8563268365
 20
1032.645174119
 30
0.0
 11
781.8563268365
 21
1086.6451755197
 31
0.0
  0
TEXT
  5
2B0
330
2A8
100
AcDbEntity
  8
Provvisorio
  6
Continuous
 62
     7
100
AcDbText
 10
775.4813268365
 20
953.2114799569
 30
0.0
 40
25.5
  1
200
 50
90.0
  7
SEACAD_arial_ttf
 11
749.9813268365
 21
953.2114799569
 31
0.0
100
AcDbText
 73
     3
  0
TEXT
  5
2B1
330
2A8
100
AcDbEntity
  8
Provvisorio
  6
Continuous
 62
     7
100
AcDbText
 10
775.4813268365
 20
852.2093060439
 30
0.0
 40
25.5
  1
H int 
 50
90.0
  7
SEACAD_arial_ttf
 11
749.9813268365
 21
852.2093060439
 31
0.0
100
AcDbText
 73
     3
  0
ENDBLK
  5
2B3
330
2A8
100
AcDbEntity
  8
0
100
AcDbBlockEnd
  0
BLOCK
  5
2BC
330
2B4
100
AcDbEntity
  8
0
100
AcDbBlockBegin
  2
GDimGGroup10
 70
     0
 10
0.0
 20
0.0
 30
0.0
  3
GDimGGroup10
  1

  0
HATCH
  5
2B6
330
2B4
100
AcDbEntity
  8
0
  6
Continuous
 62
     7
100
AcDbHatch
 10
0.0
 20
0.0
 30
0.0
210
0.0
220
0.0
230
1.0
  2
SOLID
 70
     1
 71
     0
 91
        1
 92
        1
 93
        3
 72
     1
 10
908.4917152703986
 20
440.4822634985965
 11
908.4917152703986
 21
448.9822633396508
 72
     1
 10
908.4917152703986
 20
448.9822633396508
 11
882.9917157472357
 21
444.7322634191236
 72
     1
 10
882.9917157472357
 20
444.7322634191236
 11
908.4917152703986
 21
440.4822634985965
 97
        0
 75
     0
 76
     1
 98
        0
  0
HATCH
  5
2B7
330
2B4
100
AcDbEntity
  8
0
  6
Continuous
 62
     7
100
AcDbHatch
 10
0.0
 20
0.0
 30
0.0
210
0.0
220
0.0
230
1.0
  2
SOLID
 70
     1
 71
     0
 91
        1
 92
        1
 93
        3
 72
     1
 10
1295.991712662695
 20
440.2322633023979
 11
1322.99171336305
 21
444.7322634191236
 72
     1
 10
1322.99171336305
 20
444.7322634191236
 11
1295.991712662695
 21
449.2322635358494
 72
     1
 10
1295.991712662695
 20
449.2322635358494
 11
1295.991712662695
 21
440.2322633023979
 97
        0
 75
     0
 76
     1
 98
        0
  0
LINE
  5
2B8
330
2B4
100
AcDbEntity
  8
0
  6
Continuous
 62
     7
100
AcDbLine
 10
882.9917157472
 20
582.8951743574
 30
0.0
 11
882.9917157472
 21
431.9822636575
 31
0.0
  0
LINE
  5
2B9
330
2B4
100
AcDbEntity
  8
0
  6
Continuous
 62
     7
100
AcDbLine
 10
1322.9917157472
 20
582.8951743574
 30
0.0
 11
1322.9917157472
 21
431.9822636575
 31
0.0
  0
LINE
  5
2BA
330
2B4
100
AcDbEntity
  8
0
  6
Continuous
 62
     7
100
AcDbLine
 10
882.9917157472
 20
444.7322634191
 30
0.0
 11
1322.991713363
 21
444.7322634191
 31
0.0
  0
TEXT
  5
2BB
330
2B4
100
AcDbEntity
  8
0
  6
Continuous
 62
     7
100
AcDbText
 10
1073.0569319464
 20
451.1072634191
 30
0.0
 40
25.5
  1
440
  7
SEACAD_arial_ttf
 11
1073.0569319464
 21
476.6072634191
 31
0.0
100
AcDbText
 73
     3
  0
ENDBLK
  5
2BD
330
2B4
100
AcDbEntity
  8
0
100
AcDbBlockEnd
  0
BLOCK
  5
2C7
330
2BE
100
AcDbEntity
  8
0
100
AcDbBlockBegin
  2
GDimGGroup11
 70
     0
 10
0.0
 20
0.0
 30
0.0
  3
GDimGGroup11
  1

  0
HATCH
  5
2C0
330
2BE
100
AcDbEntity
  8
0
  6
Continuous
 62
     7
100
AcDbHatch
 10
0.0
 20
0.0
 30
0.0
210
0.0
220
0.0
230
1.0
  2
SOLID
 70
     1
 71
     0
 91
        1
 92
        1
 93
        3
 72
     1
 10
173.6041688515966
 20
528.010440104298
 11
199.1041683747594
 21
532.2604400248251
 72
     1
 10
199.1041683747594
 20
532.2604400248251
 11
173.6041688515966
 21
536.5104399453522
 72
     1
 10
173.6041688515966
 20
536.5104399453522
 11
173.6041688515966
 21
528.010440104298
 97
        0
 75
     0
 76
     1
 98
        0
  0
HATCH
  5
2C1
330
2BE
100
AcDbEntity
  8
0
  6
Continuous
 62
     7
100
AcDbHatch
 10
0.0
 20
0.0
 30
0.0
210
0.0
220
0.0
230
1.0
  2
SOLID
 70
     1
 71
     0
 91
        1
 92
        1
 93
        3
 72
     1
 10
386.104169075114
 20
527.7604399080993
 11
386.104169075114
 21
536.7604401415509
 72
     1
 10
386.104169075114
 20
536.7604401415509
 11
359.1041683747594
 21
532.2604400248251
 72
     1
 10
359.1041683747594
 20
532.2604400248251
 11
386.104169075114
 21
527.7604399080993
 97
        0
 75
     0
 76
     1
 98
        0
  0
LINE
  5
2C2
330
2BE
100
AcDbEntity
  8
0
  6
Continuous
 62
     7
100
AcDbLine
 10
199.1041683748
 20
582.8951743574
 30
0.0
 11
199.1041683748
 21
519.5104402632
 31
0.0
  0
LINE
  5
2C3
330
2BE
100
AcDbEntity
  8
0
  6
Continuous
 62
     7
100
AcDbLine
 10
359.1041683748
 20
582.8951743574
 30
0.0
 11
359.1041683748
 21
519.5104402632
 31
0.0
  0
LINE
  5
2C4
330
2BE
100
AcDbEntity
  8
0
  6
Continuous
 62
     7
100
AcDbLine
 10
145.1041669741
 20
532.2604400248
 30
0.0
 11
199.1041683748
 21
532.2604400248
 31
0.0
  0
LINE
  5
2C5
330
2BE
100
AcDbEntity
  8
0
  6
Continuous
 62
     7
100
AcDbLine
 10
359.1041683748
 20
532.2604400248
 30
0.0
 11
413.1041697755
 21
532.2604400248
 31
0.0
  0
TEXT
  5
2C6
330
2BE
100
AcDbEntity
  8
0
  6
Continuous
 62
     7
100
AcDbText
 10
249.1693839779
 20
538.6354400248
 30
0.0
 40
25.5
  1
160
  7
SEACAD_arial_ttf
 11
249.1693839779
 21
564.1354400248
 31
0.0
100
AcDbText
 73
     3
  0
ENDBLK
  5
2C8
330
2BE
100
AcDbEntity
  8
0
100
AcDbBlockEnd
  0
BLOCK
  5
2D3
330
2C9
100
AcDbEntity
  8
0
100
AcDbBlockBegin
  2
GDimGGroup12
 70
     0
 10
0.0
 20
0.0
 30
0.0
  3
GDimGGroup12
  1

  0
HATCH
  5
2CB
330
2C9
100
AcDbEntity
  8
0
  6
Continuous
 62
     7
100
AcDbHatch
 10
0.0
 20
0.0
 30
0.0
210
0.0
220
0.0
230
1.0
  2
SOLID
 70
     1
 71
     0
 91
        1
 92
        1
 93
        3
 72
     1
 10
837.4917162240729
 20
471.4189665844958
 11
862.9917157472357
 21
475.668966505023
 72
     1
 10
862.9917157472357
 20
475.668966505023
 11
837.4917162240729
 21
479.9189664255501
 72
     1
 10
837.4917162240729
 20
479.9189664255501
 11
837.4917162240729
 21
471.4189665844958
 97
        0
 75
     0
 76
     1
 98
        0
  0
HATCH
  5
2CC
330
2C9
100
AcDbEntity
  8
0
  6
Continuous
 62
     7
100
AcDbHatch
 10
0.0
 20
0.0
 30
0.0
210
0.0
220
0.0
230
1.0
  2
SOLID
 70
     1
 71
     0
 91
        1
 92
        1
 93
        3
 72
     1
 10
929.9917164475904
 20
471.1689663882972
 11
929.9917164475904
 21
480.1689666217487
 72
     1
 10
929.9917164475904
 20
480.1689666217487
 11
902.9917157472358
 21
475.668966505023
 72
     1
 10
902.9917157472358
 20
475.668966505023
 11
929.9917164475904
 21
471.1689663882972
 97
        0
 75
     0
 76
     1
 98
        0
  0
LINE
  5
2CD
330
2C9
100
AcDbEntity
  8
0
  6
Continuous
 62
     7
100
AcDbLine
 10
862.9917157472
 20
582.8951743574
 30
0.0
 11
862.9917157472
 21
462.9189667434
 31
0.0
  0
LINE
  5
2CE
330
2C9
100
AcDbEntity
  8
0
  6
Continuous
 62
     7
100
AcDbLine
 10
902.9917157472
 20
582.8951743574
 30
0.0
 11
902.9917157472
 21
462.9189667434
 31
0.0
  0
LINE
  5
2CF
330
2C9
100
AcDbEntity
  8
0
  6
Continuous
 62
     7
100
AcDbLine
 10
660.1211530746
 20
475.668966505
 30
0.0
 11
862.9917157472
 21
475.668966505
 31
0.0
  0
LINE
  5
2D0
330
2C9
100
AcDbEntity
  8
0
  6
Continuous
 62
     7
100
AcDbLine
 10
902.9917157472
 20
475.668966505
 30
0.0
 11
956.9917171479
 21
475.668966505
 31
0.0
  0
TEXT
  5
2D1
330
2C9
100
AcDbEntity
  8
0
  6
Continuous
 62
     7
100
AcDbText
 10
715.9750993162
 20
482.043966505
 30
0.0
 40
25.5
  1
40
  7
SEACAD_arial_ttf
 11
715.9750993162
 21
507.543966505
 31
0.0
100
AcDbText
 73
     3
  0
TEXT
  5
2D2
330
2C9
100
AcDbEntity
  8
0
  6
Continuous
 62
     7
100
AcDbText
 10
669.0461519478
 20
482.043966505
 30
0.0
 40
25.5
  1
O
  7
SEACAD_Solid_Edge_ANSI1_Symbols
 11
669.0461519478
 21
507.543966505
 31
0.0
100
AcDbText
 73
     3
  0
ENDBLK
  5
2D4
330
2C9
100
AcDbEntity
  8
0
100
AcDbBlockEnd
  0
BLOCK
  5
2DB
330
2D5
100
AcDbEntity
  8
0
100
AcDbBlockBegin
  2
SE4
 70
     0
 10
0.0
 20
0.0
 30
0.0
  3
SE4
  1

  0
ARC
  5
2D7
330
2D5
100
AcDbEntity
  8
Provvisorio
  6
Continuous
 62
     7
100
AcDbCircle
 10
1039.02876281
 20
1004.4182641116
 30
0.0
 40
49.9579503230475
100
AcDbArc
 50
133.5188351791
 51
145.5967800584
  0
LINE
  5
2D8
330
2D5
100
AcDbEntity
  8
Provvisorio
  6
Continuous
 62
     7
100
AcDbLine
 10
997.8093698994
 20
1032.645174119
 30
0.0
 11
980.1192350389
 21
1032.645174119
 31
0.0
  0
ARC
  5
2D9
330
2D5
100
AcDbEntity
  8
Provvisorio
  6
Continuous
 62
     7
100
AcDbCircle
 10
1012.312523011
 20
1016.8533416356
 30
0.0
 40
35.85791075395687
100
AcDbArc
 50
138.4324157226
 51
153.8705792243
  0
LINE
  5
2DA
330
2D5
100
AcDbEntity
  8
Provvisorio
  6
Continuous
 62
     7
100
AcDbLine
 10
985.484581034
 20
1040.645174119
 30
0.0
 11
1004.6280681687
 21
1040.645174119
 31
0.0
  0
ENDBLK
  5
2DC
330
2D5
100
AcDbEntity
  8
0
100
AcDbBlockEnd
  0
BLOCK
  5
2E4
330
2DD
100
AcDbEntity
  8
0
100
AcDbBlockBegin
  2
SE5
 70
     0
 10
0.0
 20
0.0
 30
0.0
  3
SE5
  1

  0
LINE
  5
2DF
330
2DD
100
AcDbEntity
  8
Provvisorio
  6
Continuous
 62
     7
100
AcDbLine
 10
1035.4917157472
 20
1060.645174119
 30
0.0
 11
1015.4917157472
 21
1060.645174119
 31
0.0
  0
LINE
  5
2E0
330
2DD
100
AcDbEntity
  8
Provvisorio
  6
Continuous
 62
     7
100
AcDbLine
 10
1015.4917157472
 20
1060.645174119
 30
0.0
 11
1035.4917157472
 21
1060.645174119
 31
0.0
  0
LINE
  5
2E1
330
2DD
100
AcDbEntity
  8
Provvisorio
  6
Continuous
 62
     7
100
AcDbLine
 10
1035.4917157472
 20
1060.645174119
 30
0.0
 11
1026.0563144232
 21
1054.945174119
 31
0.0
  0
LINE
  5
2E2
330
2DD
100
AcDbEntity
  8
Provvisorio
  6
Continuous
 62
     7
100
AcDbLine
 10
1026.0563144232
 20
1054.945174119
 30
0.0
 11
1006.0563144232
 21
1054.945174119
 31
0.0
  0
LINE
  5
2E3
330
2DD
100
AcDbEntity
  8
Provvisorio
  6
Continuous
 62
     7
100
AcDbLine
 10
1006.0563144232
 20
1054.945174119
 30
0.0
 11
1015.4917157472
 21
1060.645174119
 31
0.0
  0
ENDBLK
  5
2E5
330
2DD
100
AcDbEntity
  8
0
100
AcDbBlockEnd
  0
BLOCK
  5
2EC
330
2E6
100
AcDbEntity
  8
0
100
AcDbBlockBegin
  2
SE6
 70
     0
 10
0.0
 20
0.0
 30
0.0
  3
SE6
  1

  0
LINE
  5
2E8
330
2E6
100
AcDbEntity
  8
Provvisorio
  6
Continuous
 62
     7
100
AcDbLine
 10
992.8402146043
 20
1044.245174119
 30
0.0
 11
994.8522824288
 21
1048.1767304487
 31
0.0
  0
LINE
  5
2E9
330
2E6
100
AcDbEntity
  8
Provvisorio
  6
Continuous
 62
     7
100
AcDbLine
 10
994.8522824288
 20
1048.1767304487
 30
0.0
 11
992.7892695069
 21
1046.9304481496
 31
0.0
  0
ARC
  5
2EA
330
2E6
100
AcDbEntity
  8
Provvisorio
  6
Continuous
 62
     7
100
AcDbCircle
 10
1012.312523011
 20
1016.8533416356
 30
0.0
 40
35.85791075395468
100
AcDbArc
 50
122.9878752072
 51
130.1908330649
  0
LINE
  5
2EB
330
2E6
100
AcDbEntity
  8
Provvisorio
  6
Continuous
 62
     7
100
AcDbLine
 10
989.1721410599
 20
1044.245174119
 30
0.0
 11
992.8402146043
 21
1044.245174119
 31
0.0
  0
ENDBLK
  5
2ED
330
2E6
100
AcDbEntity
  8
0
100
AcDbBlockEnd
  0
BLOCK
  5
2F6
330
2EE
100
AcDbEntity
  8
0
100
AcDbBlockBegin
  2
SE7
 70
     0
 10
0.0
 20
0.0
 30
0.0
  3
SE7
  1

  0
LINE
  5
2F0
330
2EE
100
AcDbEntity
  8
Provvisorio
  6
Continuous
 62
     7
100
AcDbLine
 10
1008.8689544593
 20
1044.245174119
 30
0.0
 11
995.568743343
 21
1044.245174119
 31
0.0
  0
LINE
  5
2F1
330
2EE
100
AcDbEntity
  8
Provvisorio
  6
Continuous
 62
     7
100
AcDbLine
 10
995.568743343
 20
1044.245174119
 30
0.0
 11
998.8019015436
 21
1050.5627263572
 31
0.0
  0
LINE
  5
2F2
330
2EE
100
AcDbEntity
  8
Provvisorio
  6
Continuous
 62
     7
100
AcDbLine
 10
998.8019015436
 20
1050.5627263572
 30
0.0
 11
1002.0835138657
 21
1052.545174119
 31
0.0
  0
LINE
  5
2F3
330
2EE
100
AcDbEntity
  8
Provvisorio
  6
Continuous
 62
     7
100
AcDbLine
 10
1002.0835138657
 20
1052.545174119
 30
0.0
 11
1022.0835138657
 21
1052.545174119
 31
0.0
  0
LINE
  5
2F4
330
2EE
100
AcDbEntity
  8
Provvisorio
  6
Continuous
 62
     7
100
AcDbLine
 10
1022.0835138657
 20
1052.545174119
 30
0.0
 11
1012.7892695069
 21
1046.9304481496
 31
0.0
  0
ARC
  5
2F5
330
2EE
100
AcDbEntity
  8
Provvisorio
  6
Continuous
 62
     7
100
AcDbCircle
 10
1039.02876281
 20
1004.4182641116
 30
0.0
 40
49.95795032304432
100
AcDbArc
 50
121.6838345765
 51
127.1356314952
  0
ENDBLK
  5
2F7
330
2EE
100
AcDbEntity
  8
0
100
AcDbBlockEnd
  0
BLOCK
  5
304
330
2FC
100
AcDbEntity
  8
0
100
AcDbBlockBegin
  2
GDimGGroup13
 70
     0
 10
0.0
 20
0.0
 30
0.0
  3
GDimGGroup13
  1

  0
HATCH
  5
2FE
330
2FC
100
AcDbEntity
  8
0
  6
Continuous
 62
     7
100
AcDbHatch
 10
0.0
 20
0.0
 30
0.0
210
0.0
220
0.0
230
1.0
  2
SOLID
 70
     1
 71
     0
 91
        1
 92
        1
 93
        3
 72
     1
 10
18.1676993584994
 20
1120.145174595805
 11
13.91769943797226
 21
1145.645174118968
 72
     1
 10
13.91769943797226
 20
1145.645174118968
 11
9.667699517445124
 21
1120.145174595805
 72
     1
 10
9.667699517445124
 20
1120.145174595805
 11
18.16769935849941
 21
1120.145174595805
 97
        0
 75
     0
 76
     1
 98
        0
  0
HATCH
  5
2FF
330
2FC
100
AcDbEntity
  8
0
  6
Continuous
 62
     7
100
AcDbHatch
 10
0.0
 20
0.0
 30
0.0
210
0.0
220
0.0
230
1.0
  2
SOLID
 70
     1
 71
     0
 91
        1
 92
        1
 93
        3
 72
     1
 10
18.41769955469805
 20
672.6451748193227
 11
9.417699321246527
 21
672.6451748193227
 72
     1
 10
9.417699321246527
 20
672.6451748193227
 11
13.91769943797229
 21
645.6451741189682
 72
     1
 10
13.91769943797229
 20
645.6451741189682
 11
18.41769955469805
 21
672.6451748193227
 97
        0
 75
     0
 76
     1
 98
        0
  0
LINE
  5
300
330
2FC
100
AcDbEntity
  8
0
  6
Continuous
 62
     7
100
AcDbLine
 10
-102.5387495939
 20
1145.645174119
 30
0.0
 11
26.6676991996
 21
1145.645174119
 31
0.0
  0
LINE
  5
301
330
2FC
100
AcDbEntity
  8
0
  6
Continuous
 62
     7
100
AcDbLine
 10
-137.5387495939
 20
645.645174119
 30
0.0
 11
26.6676991996
 21
645.645174119
 31
0.0
  0
LINE
  5
302
330
2FC
100
AcDbEntity
  8
0
  6
Continuous
 62
     7
100
AcDbLine
 10
13.917699438
 20
1145.645174119
 30
0.0
 11
13.917699438
 21
645.645174119
 31
0.0
  0
TEXT
  5
303
330
2FC
100
AcDbEntity
  8
0
  6
Continuous
 62
     7
100
AcDbText
 10
7.542699438
 20
865.7103915103
 30
0.0
 40
25.5
  1
500
 50
90.0
  7
SEACAD_arial_ttf
 11
-17.957300562
 21
865.7103915103
 31
0.0
100
AcDbText
 73
     3
  0
ENDBLK
  5
305
330
2FC
100
AcDbEntity
  8
0
100
AcDbBlockEnd
  0
ENDSEC
  0
SECTION
  2
ENTITIES
  0
LINE
  5
3F
330
1F
100
AcDbEntity
  8
0
  6
Continuous
 62
     7
100
AcDbLine
 10
852.9917157472
 20
620.645174119
 30
0.0
 11
1352.9917157472
 21
620.645174119
 31
0.0
  0
LINE
  5
41
330
1F
100
AcDbEntity
  8
Provvisorio
  6
Continuous
 62
     7
100
AcDbLine
 10
1352.9917157472
 20
620.645174119
 30
0.0
 11
1352.9917157472
 21
820.645174119
 31
0.0
  0
LINE
  5
42
330
1F
100
AcDbEntity
  8
Provvisorio
  6
Continuous
 62
     7
100
AcDbLine
 10
1352.9917157472
 20
820.645174119
 30
0.0
 11
852.9917157472
 21
820.645174119
 31
0.0
  0
LINE
  5
43
330
1F
100
AcDbEntity
  8
Provvisorio
  6
Continuous
 62
     7
100
AcDbLine
 10
852.9917157472
 20
820.645174119
 30
0.0
 11
852.9917157472
 21
620.645174119
 31
0.0
  0
LINE
  5
44
330
1F
100
AcDbEntity
  8
Provvisorio
  6
Continuous
 62
     7
100
AcDbLine
 10
1352.9917157472
 20
1060.645174119
 30
0.0
 11
1352.9917157472
 21
1145.645174119
 31
0.0
  0
LINE
  5
45
330
1F
100
AcDbEntity
  8
Provvisorio
  6
Continuous
 62
     7
100
AcDbLine
 10
1352.9917157472
 20
1145.645174119
 30
0.0
 11
962.9917157472
 21
1145.645174119
 31
0.0
  0
LINE
  5
46
330
1F
100
AcDbEntity
  8
Provvisorio
  6
Continuous
 62
     7
100
AcDbLine
 10
962.9917157472
 20
1145.645174119
 30
0.0
 11
962.9917157472
 21
1091.145174119
 31
0.0
  0
LINE
  5
47
330
1F
100
AcDbEntity
  8
Provvisorio
  6
Continuous
 62
     7
100
AcDbLine
 10
962.9917157472
 20
1060.645174119
 30
0.0
 11
1001.2333061831
 21
1060.645174119
 31
0.0
  0
LINE
  5
48
330
1F
100
AcDbEntity
  8
Provvisorio
  6
Continuous
 62
     7
100
AcDbLine
 10
1081.9917157472
 20
1027.645174119
 30
0.0
 11
1081.9917157472
 21
854.645174119
 31
0.0
  0
LINE
  5
49
330
1F
100
AcDbEntity
  8
Provvisorio
  6
Continuous
 62
     7
100
AcDbLine
 10
1056.9917157472
 20
824.645174119
 30
0.0
 11
842.9917157472
 21
824.645174119
 31
0.0
  0
LINE
  5
4A
330
1F
100
AcDbEntity
  8
Provvisorio
  6
Continuous
 62
     7
100
AcDbLine
 10
1081.9917157472
 20
1032.645174119
 30
0.0
 11
817.9917157472
 21
1032.645174119
 31
0.0
  0
LINE
  5
4B
330
1F
100
AcDbEntity
  8
Provvisorio
  6
Continuous
 62
     7
100
AcDbLine
 10
817.9917157472
 20
1027.645174119
 30
0.0
 11
817.9917157472
 21
854.645174119
 31
0.0
  0
LINE
  5
4C
330
1F
100
AcDbEntity
  8
Provvisorio
  6
Continuous
 62
     7
100
AcDbLine
 10
1056.9917157472
 20
829.645174119
 30
0.0
 11
842.9917157472
 21
829.645174119
 31
0.0
  0
ARC
  5
4D
330
1F
100
AcDbEntity
  8
Provvisorio
  6
Continuous
 62
     7
100
AcDbCircle
 10
842.9917157472
 20
854.645174119
 30
0.0
 40
25.0
100
AcDbArc
 50
180.0
 51
270.0
  0
ARC
  5
4E
330
1F
100
AcDbEntity
  8
Provvisorio
  6
Continuous
 62
     7
100
AcDbCircle
 10
1056.9917157472
 20
854.645174119
 30
0.0
 40
25.0
100
AcDbArc
 50
270.0
 51
0.0
  0
LINE
  5
4F
330
1F
100
AcDbEntity
  8
Provvisorio
  6
Continuous
 62
     7
100
AcDbLine
 10
842.9917157472
 20
829.645174119
 30
0.0
 11
842.9917157472
 21
824.645174119
 31
0.0
  0
LINE
  5
50
330
1F
100
AcDbEntity
  8
Provvisorio
  6
Continuous
 62
     7
100
AcDbLine
 10
1056.9917157472
 20
829.645174119
 30
0.0
 11
1056.9917157472
 21
824.645174119
 31
0.0
  0
LINE
  5
51
330
1F
100
AcDbEntity
  8
Provvisorio
  6
Continuous
 62
     7
100
AcDbLine
 10
817.9917157472
 20
1032.645174119
 30
0.0
 11
812.4917157472
 21
1032.645174119
 31
0.0
  0
POINT
  5
52
330
1F
100
AcDbEntity
  8
Provvisorio
  6
Continuous
 62
     7
100
AcDbPoint
 10
809.9917157472
 20
1030.145174119
 30
0.0
  0
LINE
  5
53
330
1F
100
AcDbEntity
  8
Provvisorio
  6
Continuous
 62
     7
100
AcDbLine
 10
812.4917157472
 20
1027.645174119
 30
0.0
 11
1081.9917157472
 21
1027.645174119
 31
0.0
  0
LINE
  5
54
330
1F
100
AcDbEntity
  8
Provvisorio
  6
Continuous
 62
     7
100
AcDbLine
 10
1081.9917157472
 20
1032.645174119
 30
0.0
 11
1087.4917157472
 21
1032.645174119
 31
0.0
  0
POINT
  5
55
330
1F
100
AcDbEntity
  8
Provvisorio
  6
Continuous
 62
     7
100
AcDbPoint
 10
1089.9917157472
 20
1030.145174119
 30
0.0
  0
LINE
  5
56
330
1F
100
AcDbEntity
  8
Provvisorio
  6
Continuous
 62
     7
100
AcDbLine
 10
1081.9917157472
 20
1027.645174119
 30
0.0
 11
1087.4917157472
 21
1027.645174119
 31
0.0
  0
ARC
  5
57
330
1F
100
AcDbEntity
  8
Provvisorio
  6
Continuous
 62
     7
100
AcDbCircle
 10
812.4917157472
 20
1030.145174119
 30
0.0
 40
2.5
100
AcDbArc
 50
180.0
 51
270.0
  0
ARC
  5
58
330
1F
100
AcDbEntity
  8
Provvisorio
  6
Continuous
 62
     7
100
AcDbCircle
 10
812.4917157472
 20
1030.145174119
 30
0.0
 40
2.5
100
AcDbArc
 50
90.0
 51
180.0
  0
ARC
  5
59
330
1F
100
AcDbEntity
  8
Provvisorio
  6
Continuous
 62
     7
100
AcDbCircle
 10
1087.4917157472
 20
1030.145174119
 30
0.0
 40
2.5
100
AcDbArc
 50
270.0
 51
0.0
  0
ARC
  5
5A
330
1F
100
AcDbEntity
  8
Provvisorio
  6
Continuous
 62
     7
100
AcDbCircle
 10
1087.4917157472
 20
1030.145174119
 30
0.0
 40
2.5
100
AcDbArc
 50
0.0
 51
90.0
  0
LINE
  5
5B
330
1F
100
AcDbEntity
  8
Provvisorio
  6
Continuous
 62
     7
100
AcDbLine
 10
962.9917157472
 20
1125.645174119
 30
0.0
 11
952.9917157472
 21
1125.645174119
 31
0.0
  0
LINE
  5
5C
330
1F
100
AcDbEntity
  8
Provvisorio
  6
Continuous
 62
     7
100
AcDbLine
 10
996.9917157472
 20
1060.645174119
 30
0.0
 11
996.9917157472
 21
1064.145174119
 31
0.0
  0
CIRCLE
  5
5E
330
1F
100
AcDbEntity
  8
0
  6
HIDDEN2
 62
     7
100
AcDbCircle
 10
1162.9917157472
 20
1088.645174119
 30
0.0
 40
7.5
  0
CIRCLE
  5
5F
330
1F
100
AcDbEntity
  8
0
  6
HIDDEN2
 62
     7
100
AcDbCircle
 10
1162.9917157472
 20
1088.645174119
 30
0.0
 40
3.75
  0
CIRCLE
  5
60
330
1F
100
AcDbEntity
  8
0
  6
HIDDEN2
 62
     7
100
AcDbCircle
 10
1162.9917157472
 20
1088.645174119
 30
0.0
 40
6.900000000000091
  0
CIRCLE
  5
61
330
1F
100
AcDbEntity
  8
0
  6
HIDDEN2
 62
     7
100
AcDbCircle
 10
1162.9917157472
 20
1088.645174119
 30
0.0
 40
5.0
  0
LINE
  5
62
330
1F
100
AcDbEntity
  8
0
  6
Continuous
 62
     7
100
AcDbLine
 10
918.3541849739
 20
1077.045174119
 30
0.0
 11
923.9567917867
 21
1077.045174119
 31
0.0
  0
LINE
  5
63
330
1F
100
AcDbEntity
  8
0
  6
Continuous
 62
     7
100
AcDbLine
 10
913.7414927771
 20
1074.645174119
 30
0.0
 11
918.5723954099
 21
1074.645174119
 31
0.0
  0
LINE
  5
64
330
1F
100
AcDbEntity
  8
0
  6
Continuous
 62
     7
100
AcDbLine
 10
904.2731204136
 20
1066.545174119
 30
0.0
 11
1004.252772056
 21
1066.545174119
 31
0.0
  0
LINE
  5
65
330
1F
100
AcDbEntity
  8
0
  6
Continuous
 62
     7
100
AcDbLine
 10
898.4454962862
 20
1064.145174119
 30
0.0
 11
1003.0245147518
 21
1064.145174119
 31
0.0
  0
LINE
  5
66
330
1F
100
AcDbEntity
  8
0
  6
Continuous
 62
     7
100
AcDbLine
 10
876.1062704648
 20
1054.945174119
 30
0.0
 11
998.3161950856
 21
1054.945174119
 31
0.0
  0
LINE
  5
67
330
1F
100
AcDbEntity
  8
0
  6
Continuous
 62
     7
100
AcDbLine
 10
870.2786463374
 20
1052.545174119
 30
0.0
 11
997.0879377814
 21
1052.545174119
 31
0.0
  0
LINE
  5
68
330
1F
100
AcDbEntity
  8
0
  6
Continuous
 62
     7
100
AcDbLine
 10
850.1247795637
 20
1044.245174119
 30
0.0
 11
992.8402146043
 21
1044.245174119
 31
0.0
  0
LINE
  5
69
330
1F
100
AcDbEntity
  8
0
  6
Continuous
 62
     7
100
AcDbLine
 10
952.203960874
 20
1086.145174119
 30
0.0
 11
929.7689759707
 21
1077.045174119
 31
0.0
  0
LINE
  5
6A
330
1F
100
AcDbEntity
  8
0
  6
Continuous
 62
     7
100
AcDbLine
 10
948.2734996173
 20
1086.9839190236
 30
0.0
 11
844.3125953798
 21
1044.245174119
 31
0.0
  0
LINE
  5
6B
330
1F
100
AcDbEntity
  8
0
  6
Continuous
 62
     7
100
AcDbLine
 10
815.3095447211
 20
1040.645174119
 30
0.0
 11
1157.5917157472
 21
1040.645174119
 31
0.0
  0
ARC
  5
6C
330
1F
100
AcDbEntity
  8
0
  6
Continuous
 62
     7
100
AcDbCircle
 10
950.1417157472
 20
1088.645174119
 30
0.0
 40
2.5
100
AcDbArc
 50
90.0
 51
180.0
  0
ARC
  5
6D
330
1F
100
AcDbEntity
  8
0
  6
Continuous
 62
     7
100
AcDbCircle
 10
950.1417157472
 20
1088.645174119
 30
0.0
 40
2.5
100
AcDbArc
 50
180.0
 51
270.0
  0
LINE
  5
6E
330
1F
100
AcDbEntity
  8
0
  6
Continuous
 62
     7
100
AcDbLine
 10
870.4301491472
 20
1064.145174119
 30
0.0
 11
892.7188365772
 21
1064.145174119
 31
0.0
  0
LINE
  5
6F
330
1F
100
AcDbEntity
  8
0
  6
Continuous
 62
     7
100
AcDbLine
 10
870.4301491472
 20
1066.545174119
 30
0.0
 11
898.5567752141
 21
1066.545174119
 31
0.0
  0
LINE
  5
70
330
1F
100
AcDbEntity
  8
0
  6
Continuous
 62
     7
100
AcDbLine
 10
815.3095447211
 20
1044.245174119
 30
0.0
 11
844.3125953798
 21
1044.245174119
 31
0.0
  0
LINE
  5
71
330
1F
100
AcDbEntity
  8
0
  6
Continuous
 62
     7
100
AcDbLine
 10
843.0663872613
 20
1052.545174119
 30
0.0
 11
864.5021331656
 21
1052.545174119
 31
0.0
  0
LINE
  5
72
330
1F
100
AcDbEntity
  8
0
  6
Continuous
 62
     7
100
AcDbLine
 10
843.0663872613
 20
1054.945174119
 30
0.0
 11
870.3400718025
 21
1054.945174119
 31
0.0
  0
ARC
  5
73
330
1F
100
AcDbEntity
  8
0
  6
Continuous
 62
     7
100
AcDbCircle
 10
815.3095447211
 20
1042.445174119
 30
0.0
 40
1.8
100
AcDbArc
 50
90.0
 51
270.0
  0
ARC
  5
74
330
1F
100
AcDbEntity
  8
0
  6
Continuous
 62
     7
100
AcDbCircle
 10
815.3095447211
 20
1042.445174119
 30
0.0
 40
1.8
100
AcDbArc
 50
270.0
 51
90.0
  0
ARC
  5
75
330
1F
100
AcDbEntity
  8
0
  6
Continuous
 62
     7
100
AcDbCircle
 10
843.0663872613
 20
1053.745174119
 30
0.0
 40
1.2
100
AcDbArc
 50
90.0
 51
270.0
  0
ARC
  5
76
330
1F
100
AcDbEntity
  8
0
  6
Continuous
 62
     7
100
AcDbCircle
 10
870.4301491472
 20
1065.345174119
 30
0.0
 40
1.2
100
AcDbArc
 50
90.0
 51
270.0
  0
LINE
  5
77
330
1F
100
AcDbEntity
  8
0
  6
Continuous
 62
     7
100
AcDbLine
 10
897.793911033
 20
1077.045174119
 30
0.0
 11
918.3541849739
 21
1077.045174119
 31
0.0
  0
LINE
  5
78
330
1F
100
AcDbEntity
  8
0
  6
Continuous
 62
     7
100
AcDbLine
 10
897.793911033
 20
1074.645174119
 30
0.0
 11
916.1569440935
 21
1074.645174119
 31
0.0
  0
ARC
  5
79
330
1F
100
AcDbEntity
  8
0
  6
Continuous
 62
     7
100
AcDbCircle
 10
897.793911033
 20
1075.845174119
 30
0.0
 40
1.2
100
AcDbArc
 50
90.0
 51
270.0
  0
LINE
  5
7A
330
1F
100
AcDbEntity
  8
0
  6
Continuous
 62
     7
100
AcDbLine
 10
1012.299250002
 20
1077.045174119
 30
0.0
 11
1161.1917157472
 21
1077.045174119
 31
0.0
  0
LINE
  5
7B
330
1F
100
AcDbEntity
  8
0
  6
Continuous
 62
     7
100
AcDbLine
 10
1011.1681734955
 20
1074.645174119
 30
0.0
 11
1161.1917157472
 21
1074.645174119
 31
0.0
  0
LINE
  5
7C
330
1F
100
AcDbEntity
  8
0
  6
Continuous
 62
     7
100
AcDbLine
 10
1006.9813007947
 20
1066.545174119
 30
0.0
 11
1161.1917157472
 21
1066.545174119
 31
0.0
  0
LINE
  5
7D
330
1F
100
AcDbEntity
  8
0
  6
Continuous
 62
     7
100
AcDbLine
 10
1005.7530434905
 20
1064.145174119
 30
0.0
 11
1161.1917157472
 21
1064.145174119
 31
0.0
  0
LINE
  5
7E
330
1F
100
AcDbEntity
  8
0
  6
Continuous
 62
     7
100
AcDbLine
 10
1001.0447238243
 20
1054.945174119
 30
0.0
 11
1161.1917157472
 21
1054.945174119
 31
0.0
  0
LINE
  5
7F
330
1F
100
AcDbEntity
  8
0
  6
Continuous
 62
     7
100
AcDbLine
 10
999.8164665201
 20
1052.545174119
 30
0.0
 11
1161.1917157472
 21
1052.545174119
 31
0.0
  0
LINE
  5
80
330
1F
100
AcDbEntity
  8
0
  6
Continuous
 62
     7
100
AcDbLine
 10
995.568743343
 20
1044.245174119
 30
0.0
 11
1157.5917157472
 21
1044.245174119
 31
0.0
  0
LINE
  5
81
330
1F
100
AcDbEntity
  8
0
  6
Continuous
 62
     7
100
AcDbLine
 10
1156.5605416709
 20
1091.145174119
 30
0.0
 11
950.1417157472
 21
1091.145174119
 31
0.0
  0
LINE
  5
82
330
1F
100
AcDbEntity
  8
0
  6
Continuous
 62
     7
100
AcDbLine
 10
1156.5605416709
 20
1086.145174119
 30
0.0
 11
950.1417157472
 21
1086.145174119
 31
0.0
  0
LINE
  5
83
330
1F
100
AcDbEntity
  8
0
  6
Continuous
 62
     7
100
AcDbLine
 10
1017.0120687792
 20
1086.145174119
 30
0.0
 11
995.568743343
 21
1044.245174119
 31
0.0
  0
LINE
  5
84
330
1F
100
AcDbEntity
  8
0
  6
Continuous
 62
     7
100
AcDbLine
 10
1014.2835400405
 20
1086.145174119
 30
0.0
 11
992.8402146043
 21
1044.245174119
 31
0.0
  0
POINT
  5
85
330
1F
100
AcDbEntity
  8
0
  6
Continuous
 62
     7
100
AcDbPoint
 10
947.6417157472
 20
1088.645174119
 30
0.0
  0
CIRCLE
  5
86
330
1F
100
AcDbEntity
  8
0
  6
Continuous
 62
     7
100
AcDbCircle
 10
1162.9917157472
 20
1088.645174119
 30
0.0
 40
5.0
  0
CIRCLE
  5
87
330
1F
100
AcDbEntity
  8
0
  6
Continuous
 62
     7
100
AcDbCircle
 10
1162.9917157472
 20
1088.645174119
 30
0.0
 40
3.75
  0
CIRCLE
  5
88
330
1F
100
AcDbEntity
  8
0
  6
Continuous
 62
     7
100
AcDbCircle
 10
1162.9917157472
 20
1088.645174119
 30
0.0
 40
6.900000000000091
  0
CIRCLE
  5
89
330
1F
100
AcDbEntity
  8
0
  6
Continuous
 62
     7
100
AcDbCircle
 10
1162.9917157472
 20
1088.645174119
 30
0.0
 40
7.5
  0
ARC
  5
8A
330
1F
100
AcDbEntity
  8
0
  6
Continuous
 62
     7
100
AcDbCircle
 10
1157.4163715951
 20
1048.0165527894
 30
0.0
 40
3.775452641399521
100
AcDbArc
 50
272.6619576528
 51
0.4343577451
  0
ARC
  5
8B
330
1F
100
AcDbEntity
  8
0
  6
Continuous
 62
     7
100
AcDbCircle
 10
1157.4186909183
 20
1048.0162253038
 30
0.0
 40
7.373081659759247
100
AcDbArc
 50
271.3446891056
 51
0.2249601004
  0
LINE
  5
8C
330
1F
100
AcDbEntity
  8
0
  6
Continuous
 62
     7
100
AcDbLine
 10
1164.7917157472
 20
1081.145174119
 30
0.0
 11
1161.1917157472
 21
1081.145174119
 31
0.0
  0
LINE
  5
8D
330
1F
100
AcDbEntity
  8
Provvisorio
  6
Continuous
 62
     7
100
AcDbLine
 10
952.9917157472
 20
1125.645174119
 30
0.0
 11
952.9917157472
 21
1091.145174119
 31
0.0
  0
LINE
  5
8E
330
1F
100
AcDbEntity
  8
Provvisorio
  6
Continuous
 62
     7
100
AcDbLine
 10
1182.9917157472
 20
990.645174119
 30
0.0
 11
1182.9917157472
 21
920.645174119
 31
0.0
  0
LINE
  5
8F
330
1F
100
AcDbEntity
  8
Provvisorio
  6
Continuous
 62
     7
100
AcDbLine
 10
1187.9917157472
 20
915.645174119
 30
0.0
 11
1277.9917157472
 21
915.645174119
 31
0.0
  0
LINE
  5
90
330
1F
100
AcDbEntity
  8
Provvisorio
  6
Continuous
 62
     7
100
AcDbLine
 10
1282.9917157472
 20
920.645174119
 30
0.0
 11
1282.9917157472
 21
990.645174119
 31
0.0
  0
LINE
  5
91
330
1F
100
AcDbEntity
  8
Provvisorio
  6
Continuous
 62
     7
100
AcDbLine
 10
1277.9917157472
 20
995.645174119
 30
0.0
 11
1187.9917157472
 21
995.645174119
 31
0.0
  0
ARC
  5
92
330
1F
100
AcDbEntity
  8
Provvisorio
  6
Continuous
 62
     7
100
AcDbCircle
 10
1187.9917157472
 20
990.645174119
 30
0.0
 40
5.0
100
AcDbArc
 50
90.0
 51
180.0
  0
ARC
  5
93
330
1F
100
AcDbEntity
  8
Provvisorio
  6
Continuous
 62
     7
100
AcDbCircle
 10
1277.9917157472
 20
990.645174119
 30
0.0
 40
5.0
100
AcDbArc
 50
0.0
 51
90.0
  0
ARC
  5
94
330
1F
100
AcDbEntity
  8
Provvisorio
  6
Continuous
 62
     7
100
AcDbCircle
 10
1277.9917157472
 20
920.645174119
 30
0.0
 40
5.0
100
AcDbArc
 50
270.0
 51
0.0
  0
ARC
  5
95
330
1F
100
AcDbEntity
  8
Provvisorio
  6
Continuous
 62
     7
100
AcDbCircle
 10
1187.9917157472
 20
920.645174119
 30
0.0
 40
5.0
100
AcDbArc
 50
180.0
 51
270.0
  0
LINE
  5
96
330
1F
100
AcDbEntity
  8
Provvisorio
  6
Continuous
 62
     7
100
AcDbLine
 10
1192.9917157472
 20
983.645174119
 30
0.0
 11
1192.9917157472
 21
967.645174119
 31
0.0
  0
LINE
  5
97
330
1F
100
AcDbEntity
  8
Provvisorio
  6
Continuous
 62
     7
100
AcDbLine
 10
1194.9917157472
 20
965.645174119
 30
0.0
 11
1210.9917157472
 21
965.645174119
 31
0.0
  0
LINE
  5
98
330
1F
100
AcDbEntity
  8
Provvisorio
  6
Continuous
 62
     7
100
AcDbLine
 10
1212.9917157472
 20
967.645174119
 30
0.0
 11
1212.9917157472
 21
983.645174119
 31
0.0
  0
LINE
  5
99
330
1F
100
AcDbEntity
  8
Provvisorio
  6
Continuous
 62
     7
100
AcDbLine
 10
1210.9917157472
 20
985.645174119
 30
0.0
 11
1194.9917157472
 21
985.645174119
 31
0.0
  0
LINE
  5
9A
330
1F
100
AcDbEntity
  8
Provvisorio
  6
Continuous
 62
     7
100
AcDbLine
 10
1187.9917157472
 20
985.645174119
 30
0.0
 11
1187.9917157472
 21
925.645174119
 31
0.0
  0
LINE
  5
9B
330
1F
100
AcDbEntity
  8
Provvisorio
  6
Continuous
 62
     7
100
AcDbLine
 10
1272.9917157472
 20
990.645174119
 30
0.0
 11
1192.9917157472
 21
990.645174119
 31
0.0
  0
LINE
  5
9C
330
1F
100
AcDbEntity
  8
Provvisorio
  6
Continuous
 62
     7
100
AcDbLine
 10
1277.9917157472
 20
925.645174119
 30
0.0
 11
1277.9917157472
 21
985.645174119
 31
0.0
  0
LINE
  5
9D
330
1F
100
AcDbEntity
  8
Provvisorio
  6
Continuous
 62
     7
100
AcDbLine
 10
1192.9917157472
 20
920.645174119
 30
0.0
 11
1272.9917157472
 21
920.645174119
 31
0.0
  0
LINE
  5
9E
330
1F
100
AcDbEntity
  8
Provvisorio
  6
Continuous
 62
     7
100
AcDbLine
 10
1272.9917157472
 20
967.645174119
 30
0.0
 11
1272.9917157472
 21
983.645174119
 31
0.0
  0
LINE
  5
9F
330
1F
100
AcDbEntity
  8
Provvisorio
  6
Continuous
 62
     7
100
AcDbLine
 10
1252.9917157472
 20
983.645174119
 30
0.0
 11
1252.9917157472
 21
967.645174119
 31
0.0
  0
LINE
  5
A0
330
1F
100
AcDbEntity
  8
Provvisorio
  6
Continuous
 62
     7
100
AcDbLine
 10
1254.9917157472
 20
965.645174119
 30
0.0
 11
1270.9917157472
 21
965.645174119
 31
0.0
  0
LINE
  5
A1
330
1F
100
AcDbEntity
  8
Provvisorio
  6
Continuous
 62
     7
100
AcDbLine
 10
1270.9917157472
 20
985.645174119
 30
0.0
 11
1254.9917157472
 21
985.645174119
 31
0.0
  0
CIRCLE
  5
A2
330
1F
100
AcDbEntity
  8
Provvisorio
  6
Continuous
 62
     7
100
AcDbCircle
 10
1232.9917157472
 20
975.645174119
 30
0.0
 40
2.0
  0
LINE
  5
A3
330
1F
100
AcDbEntity
  8
Provvisorio
  6
Continuous
 62
     7
100
AcDbLine
 10
1187.9917157472
 20
955.645174119
 30
0.0
 11
1277.9917157472
 21
955.645174119
 31
0.0
  0
ARC
  5
A4
330
1F
100
AcDbEntity
  8
Provvisorio
  6
Continuous
 62
     7
100
AcDbCircle
 10
1192.9917157472
 20
985.645174119
 30
0.0
 40
5.0
100
AcDbArc
 50
90.0
 51
180.0
  0
ARC
  5
A5
330
1F
100
AcDbEntity
  8
Provvisorio
  6
Continuous
 62
     7
100
AcDbCircle
 10
1272.9917157472
 20
985.645174119
 30
0.0
 40
5.0
100
AcDbArc
 50
0.0
 51
90.0
  0
ARC
  5
A6
330
1F
100
AcDbEntity
  8
Provvisorio
  6
Continuous
 62
     7
100
AcDbCircle
 10
1192.9917157472
 20
925.645174119
 30
0.0
 40
5.0
100
AcDbArc
 50
180.0
 51
270.0
  0
ARC
  5
A7
330
1F
100
AcDbEntity
  8
Provvisorio
  6
Continuous
 62
     7
100
AcDbCircle
 10
1272.9917157472
 20
925.645174119
 30
0.0
 40
5.0
100
AcDbArc
 50
270.0
 51
0.0
  0
TEXT
  5
A9
330
1F
100
AcDbEntity
  8
Provvisorio
  6
Continuous
 62
     7
100
AcDbText
 10
1197.9444370562
 20
960.6657877746
 30
0.0
 40
3.0
  1
STOP
  7
SEACAD_arial_ttf
 11
1197.9444370562
 21
963.6657877746
 31
0.0
100
AcDbText
 73
     3
  0
TEXT
  5
AA
330
1F
100
AcDbEntity
  8
Provvisorio
  6
Continuous
 62
     7
100
AcDbText
 10
1257.5751544646
 20
960.6657877746
 30
0.0
 40
3.0
  1
START
  7
SEACAD_arial_ttf
 11
1257.5751544646
 21
963.6657877746
 31
0.0
100
AcDbText
 73
     3
  0
TEXT
  5
AB
330
1F
100
AcDbEntity
  8
Provvisorio
  6
Continuous
 62
     7
100
AcDbText
 10
1227.6607467747
 20
967.9895092214
 30
0.0
 40
3.0
  1
RETE
  7
SEACAD_arial_ttf
 11
1227.6607467747
 21
970.9895092214
 31
0.0
100
AcDbText
 73
     3
  0
ARC
  5
AC
330
1F
100
AcDbEntity
  8
Provvisorio
  6
Continuous
 62
     7
100
AcDbCircle
 10
1194.9917157472
 20
967.645174119
 30
0.0
 40
2.0
100
AcDbArc
 50
180.0
 51
270.0
  0
ARC
  5
AD
330
1F
100
AcDbEntity
  8
Provvisorio
  6
Continuous
 62
     7
100
AcDbCircle
 10
1194.9917157472
 20
983.645174119
 30
0.0
 40
2.0
100
AcDbArc
 50
90.0
 51
180.0
  0
ARC
  5
AE
330
1F
100
AcDbEntity
  8
Provvisorio
  6
Continuous
 62
     7
100
AcDbCircle
 10
1210.9917157472
 20
983.645174119
 30
0.0
 40
2.0
100
AcDbArc
 50
0.0
 51
90.0
  0
ARC
  5
AF
330
1F
100
AcDbEntity
  8
Provvisorio
  6
Continuous
 62
     7
100
AcDbCircle
 10
1210.9917157472
 20
967.645174119
 30
0.0
 40
2.0
100
AcDbArc
 50
270.0
 51
0.0
  0
ARC
  5
B0
330
1F
100
AcDbEntity
  8
Provvisorio
  6
Continuous
 62
     7
100
AcDbCircle
 10
1254.9917157472
 20
967.645174119
 30
0.0
 40
2.0
100
AcDbArc
 50
180.0
 51
270.0
  0
ARC
  5
B1
330
1F
100
AcDbEntity
  8
Provvisorio
  6
Continuous
 62
     7
100
AcDbCircle
 10
1254.9917157472
 20
983.645174119
 30
0.0
 40
2.0
100
AcDbArc
 50
90.0
 51
180.0
  0
ARC
  5
B2
330
1F
100
AcDbEntity
  8
Provvisorio
  6
Continuous
 62
     7
100
AcDbCircle
 10
1270.9917157472
 20
983.645174119
 30
0.0
 40
2.0
100
AcDbArc
 50
0.0
 51
90.0
  0
ARC
  5
B3
330
1F
100
AcDbEntity
  8
Provvisorio
  6
Continuous
 62
     7
100
AcDbCircle
 10
1270.9917157472
 20
967.645174119
 30
0.0
 40
2.0
100
AcDbArc
 50
270.0
 51
0.0
  0
LINE
  5
B4
330
1F
100
AcDbEntity
  8
Provvisorio
  6
Continuous
 62
     7
100
AcDbLine
 10
1261.4917157472
 20
982.645174119
 30
0.0
 11
1261.4917157472
 21
968.645174119
 31
0.0
  0
LINE
  5
B5
330
1F
100
AcDbEntity
  8
Provvisorio
  6
Continuous
 62
     7
100
AcDbLine
 10
1264.4917157472
 20
982.645174119
 30
0.0
 11
1264.4917157472
 21
968.645174119
 31
0.0
  0
ARC
  5
B6
330
1F
100
AcDbEntity
  8
Provvisorio
  6
Continuous
 62
     7
100
AcDbCircle
 10
1262.9917157472
 20
982.645174119
 30
0.0
 40
1.5
100
AcDbArc
 50
0.0
 51
180.0
  0
ARC
  5
B7
330
1F
100
AcDbEntity
  8
Provvisorio
  6
Continuous
 62
     7
100
AcDbCircle
 10
1262.9917157472
 20
968.645174119
 30
0.0
 40
1.5
100
AcDbArc
 50
180.0
 51
0.0
  0
CIRCLE
  5
B8
330
1F
100
AcDbEntity
  8
Provvisorio
  6
Continuous
 62
     7
100
AcDbCircle
 10
1202.9917157472
 20
975.645174119
 30
0.0
 40
5.0
  0
CIRCLE
  5
B9
330
1F
100
AcDbEntity
  8
Provvisorio
  6
Continuous
 62
     7
100
AcDbCircle
 10
1202.9917157472
 20
975.645174119
 30
0.0
 40
8.0
  0
CIRCLE
  5
BA
330
1F
100
AcDbEntity
  8
0
  6
Continuous
 62
     7
100
AcDbCircle
 10
1315.8797856438
 20
642.0337801931
 30
0.0
 40
6.0
  0
LINE
  5
BB
330
1F
100
AcDbEntity
  8
Provvisorio
  6
Continuous
 62
     7
100
AcDbLine
 10
219.6041683748
 20
1145.645174119
 30
0.0
 11
338.6041683748
 21
1145.645174119
 31
0.0
  0
LINE
  5
BC
330
1F
100
AcDbEntity
  8
Provvisorio
  6
Continuous
 62
     7
100
AcDbLine
 10
219.6041683748
 20
1060.645174119
 30
0.0
 11
338.6041683748
 21
1060.645174119
 31
0.0
  0
LINE
  5
BD
330
1F
100
AcDbEntity
  8
0
  6
Continuous
 62
     7
100
AcDbLine
 10
178.1041683748
 20
620.645174119
 30
0.0
 11
380.1041683748
 21
620.645174119
 31
0.0
  0
LINE
  5
BE
330
1F
100
AcDbEntity
  8
0
  6
Continuous
 62
     7
100
AcDbLine
 10
178.1041683748
 20
820.645174119
 30
0.0
 11
178.1041683748
 21
620.645174119
 31
0.0
  0
ARC
  5
BF
330
1F
100
AcDbEntity
  8
0
  6
Continuous
 62
     7
100
AcDbCircle
 10
219.6041683748
 20
1063.645174119
 30
0.0
 40
3.0
100
AcDbArc
 50
180.0
 51
270.0
  0
LINE
  5
C0
330
1F
100
AcDbEntity
  8
0
  6
Continuous
 62
     7
100
AcDbLine
 10
207.0041683748
 20
1081.145174119
 30
0.0
 11
207.0041683748
 21
1047.845174119
 31
0.0
  0
LINE
  5
C1
330
1F
100
AcDbEntity
  8
0
  6
Continuous
 62
     7
100
AcDbLine
 10
210.6041683748
 20
1081.145174119
 30
0.0
 11
210.6041683748
 21
1047.845174119
 31
0.0
  0
LINE
  5
C2
330
1F
100
AcDbEntity
  8
0
  6
Continuous
 62
     7
100
AcDbLine
 10
142.146103038
 20
1041.0537772579
 30
0.0
 11
205.8041683748
 21
1081.7738416396
 31
0.0
  0
LINE
  5
C3
330
1F
100
AcDbEntity
  8
Provvisorio
  6
Continuous
 62
     7
100
AcDbLine
 10
178.1041683748
 20
820.645174119
 30
0.0
 11
224.1041683748
 21
1060.645174119
 31
0.0
  0
LINE
  5
C4
330
1F
100
AcDbEntity
  8
0
  6
Continuous
 62
     7
100
AcDbLine
 10
147.1041683748
 20
1027.645174119
 30
0.0
 11
147.1041683748
 21
854.645174119
 31
0.0
  0
LINE
  5
C5
330
1F
100
AcDbEntity
  8
0
  6
Continuous
 62
     7
100
AcDbLine
 10
179.8291683748
 20
829.645174119
 30
0.0
 11
172.1041683748
 21
829.645174119
 31
0.0
  0
LINE
  5
C6
330
1F
100
AcDbEntity
  8
0
  6
Continuous
 62
     7
100
AcDbLine
 10
178.8708350414
 20
824.645174119
 30
0.0
 11
172.1041683748
 21
824.645174119
 31
0.0
  0
LINE
  5
C7
330
1F
100
AcDbEntity
  8
0
  6
Continuous
 62
     7
100
AcDbLine
 10
172.1041683748
 20
829.645174119
 30
0.0
 11
172.1041683748
 21
824.645174119
 31
0.0
  0
ARC
  5
C8
330
1F
100
AcDbEntity
  8
0
  6
Continuous
 62
     7
100
AcDbCircle
 10
172.1041683748
 20
854.645174119
 30
0.0
 40
25.0
100
AcDbArc
 50
180.0
 51
270.0
  0
LINE
  5
C9
330
1F
100
AcDbEntity
  8
0
  6
Continuous
 62
     7
100
AcDbLine
 10
141.6041683748
 20
1027.645174119
 30
0.0
 11
219.1208350414
 21
1027.645174119
 31
0.0
  0
LINE
  5
CA
330
1F
100
AcDbEntity
  8
0
  6
Continuous
 62
     7
100
AcDbLine
 10
220.0791683748
 20
1032.645174119
 30
0.0
 11
147.1041683748
 21
1032.645174119
 31
0.0
  0
LINE
  5
CB
330
1F
100
AcDbEntity
  8
0
  6
Continuous
 62
     7
100
AcDbLine
 10
203.4041683748
 20
1040.645174119
 30
0.0
 11
141.0041683748
 21
1040.645174119
 31
0.0
  0
LINE
  5
CC
330
1F
100
AcDbEntity
  8
0
  6
Continuous
 62
     7
100
AcDbLine
 10
203.4041683748
 20
1044.245174119
 30
0.0
 11
141.0041683748
 21
1044.245174119
 31
0.0
  0
ARC
  5
CD
330
1F
100
AcDbEntity
  8
0
  6
Continuous
 62
     7
100
AcDbCircle
 10
141.6041683748
 20
1030.145174119
 30
0.0
 40
2.5
100
AcDbArc
 50
180.0
 51
270.0
  0
ARC
  5
CE
330
1F
100
AcDbEntity
  8
0
  6
Continuous
 62
     7
100
AcDbCircle
 10
141.6041683748
 20
1030.145174119
 30
0.0
 40
2.5
100
AcDbArc
 50
90.0
 51
180.0
  0
CIRCLE
  5
CF
330
1F
100
AcDbEntity
  8
0
  6
Continuous
 62
     7
100
AcDbCircle
 10
141.0041683748
 20
1042.445174119
 30
0.0
 40
1.800000000000011
  0
POINT
  5
D0
330
1F
100
AcDbEntity
  8
0
  6
Continuous
 62
     7
100
AcDbPoint
 10
139.1041683748
 20
1030.145174119
 30
0.0
  0
LINE
  5
D1
330
1F
100
AcDbEntity
  8
0
  6
Continuous
 62
     7
100
AcDbLine
 10
147.1041683748
 20
1032.645174119
 30
0.0
 11
141.6041683748
 21
1032.645174119
 31
0.0
  0
ARC
  5
D2
330
1F
100
AcDbEntity
  8
0
  6
Continuous
 62
     7
100
AcDbCircle
 10
203.4041683748
 20
1047.845174119
 30
0.0
 40
7.2
100
AcDbArc
 50
270.0
 51
0.0
  0
ARC
  5
D3
330
1F
100
AcDbEntity
  8
0
  6
Continuous
 62
     7
100
AcDbCircle
 10
203.4041683748
 20
1047.845174119
 30
0.0
 40
3.6
100
AcDbArc
 50
270.0
 51
0.0
  0
LINE
  5
D4
330
1F
100
AcDbEntity
  8
Provvisorio
  6
Continuous
 62
     7
100
AcDbLine
 10
216.6041683748
 20
1142.645174119
 30
0.0
 11
216.6041683748
 21
1063.645174119
 31
0.0
  0
LINE
  5
D5
330
1F
100
AcDbEntity
  8
0
  6
Continuous
 62
     7
100
AcDbLine
 10
216.0041683748
 20
1096.145174119
 30
0.0
 11
205.8041683748
 21
1096.145174119
 31
0.0
  0
LINE
  5
D6
330
1F
100
AcDbEntity
  8
0
  6
Continuous
 62
     7
100
AcDbLine
 10
216.0041683748
 20
1081.145174119
 30
0.0
 11
205.8041683748
 21
1081.145174119
 31
0.0
  0
LINE
  5
D7
330
1F
100
AcDbEntity
  8
0
  6
Continuous
 62
     7
100
AcDbLine
 10
205.8041683748
 20
1081.145174119
 30
0.0
 11
205.8041683748
 21
1096.145174119
 31
0.0
  0
LINE
  5
D8
330
1F
100
AcDbEntity
  8
0
  6
Continuous
 62
     7
100
AcDbLine
 10
205.2041683748
 20
1095.545174119
 30
0.0
 11
205.2041683748
 21
1081.745174119
 31
0.0
  0
LINE
  5
D9
330
1F
100
AcDbEntity
  8
0
  6
Continuous
 62
     7
100
AcDbLine
 10
205.8041683748
 20
1081.145174119
 30
0.0
 11
205.2041683748
 21
1081.745174119
 31
0.0
  0
LINE
  5
DA
330
1F
100
AcDbEntity
  8
0
  6
Continuous
 62
     7
100
AcDbLine
 10
205.2041683748
 20
1095.545174119
 30
0.0
 11
205.8041683748
 21
1096.145174119
 31
0.0
  0
LINE
  5
DB
330
1F
100
AcDbEntity
  8
0
  6
Continuous
 62
     7
100
AcDbLine
 10
216.0041683748
 20
1081.145174119
 30
0.0
 11
216.0041683748
 21
1096.145174119
 31
0.0
  0
LINE
  5
DC
330
1F
100
AcDbEntity
  8
0
  6
Continuous
 62
     7
100
AcDbLine
 10
216.6041683748
 20
1095.545174119
 30
0.0
 11
216.6041683748
 21
1081.745174119
 31
0.0
  0
LINE
  5
DD
330
1F
100
AcDbEntity
  8
0
  6
Continuous
 62
     7
100
AcDbLine
 10
216.6041683748
 20
1081.745174119
 30
0.0
 11
216.0041683748
 21
1081.145174119
 31
0.0
  0
LINE
  5
DE
330
1F
100
AcDbEntity
  8
0
  6
Continuous
 62
     7
100
AcDbLine
 10
216.0041683748
 20
1096.145174119
 30
0.0
 11
216.6041683748
 21
1095.545174119
 31
0.0
  0
ARC
  5
DF
330
1F
100
AcDbEntity
  8
0
  6
Continuous
 62
     7
100
AcDbCircle
 10
219.6041683748
 20
1142.645174119
 30
0.0
 40
3.0
100
AcDbArc
 50
90.0
 51
180.0
  0
LINE
  5
E0
330
1F
100
AcDbEntity
  8
0
  6
Continuous
 62
     7
100
AcDbLine
 10
380.1041683748
 20
620.645174119
 30
0.0
 11
380.1041683748
 21
820.645174119
 31
0.0
  0
ARC
  5
E1
330
1F
100
AcDbEntity
  8
0
  6
Continuous
 62
     7
100
AcDbCircle
 10
338.6041683748
 20
1063.645174119
 30
0.0
 40
3.0
100
AcDbArc
 50
270.0
 51
0.0
  0
LINE
  5
E2
330
1F
100
AcDbEntity
  8
0
  6
Continuous
 62
     7
100
AcDbLine
 10
351.2041683748
 20
1081.145174119
 30
0.0
 11
351.2041683748
 21
1047.845174119
 31
0.0
  0
LINE
  5
E3
330
1F
100
AcDbEntity
  8
0
  6
Continuous
 62
     7
100
AcDbLine
 10
347.6041683748
 20
1081.145174119
 30
0.0
 11
347.6041683748
 21
1047.845174119
 31
0.0
  0
LINE
  5
E4
330
1F
100
AcDbEntity
  8
0
  6
Continuous
 62
     7
100
AcDbLine
 10
416.0622337115
 20
1041.0537772579
 30
0.0
 11
352.4041683748
 21
1081.7738416396
 31
0.0
  0
LINE
  5
E5
330
1F
100
AcDbEntity
  8
Provvisorio
  6
Continuous
 62
     7
100
AcDbLine
 10
334.1041683748
 20
1060.645174119
 30
0.0
 11
380.1041683748
 21
820.645174119
 31
0.0
  0
LINE
  5
E6
330
1F
100
AcDbEntity
  8
0
  6
Continuous
 62
     7
100
AcDbLine
 10
411.1041683748
 20
1027.645174119
 30
0.0
 11
411.1041683748
 21
854.645174119
 31
0.0
  0
LINE
  5
E7
330
1F
100
AcDbEntity
  8
0
  6
Continuous
 62
     7
100
AcDbLine
 10
386.1041683748
 20
829.645174119
 30
0.0
 11
386.1041683748
 21
824.645174119
 31
0.0
  0
ARC
  5
E8
330
1F
100
AcDbEntity
  8
0
  6
Continuous
 62
     7
100
AcDbCircle
 10
386.1041683748
 20
854.645174119
 30
0.0
 40
25.0
100
AcDbArc
 50
270.0
 51
0.0
  0
LINE
  5
E9
330
1F
100
AcDbEntity
  8
0
  6
Continuous
 62
     7
100
AcDbLine
 10
386.1041683748
 20
824.645174119
 30
0.0
 11
379.3375017081
 21
824.645174119
 31
0.0
  0
LINE
  5
EA
330
1F
100
AcDbEntity
  8
0
  6
Continuous
 62
     7
100
AcDbLine
 10
386.1041683748
 20
829.645174119
 30
0.0
 11
378.3791683748
 21
829.645174119
 31
0.0
  0
LINE
  5
EB
330
1F
100
AcDbEntity
  8
0
  6
Continuous
 62
     7
100
AcDbLine
 10
339.0875017081
 20
1027.645174119
 30
0.0
 11
411.1041683748
 21
1027.645174119
 31
0.0
  0
LINE
  5
EC
330
1F
100
AcDbEntity
  8
0
  6
Continuous
 62
     7
100
AcDbLine
 10
411.1041683748
 20
1032.645174119
 30
0.0
 11
338.1291683748
 21
1032.645174119
 31
0.0
  0
LINE
  5
ED
330
1F
100
AcDbEntity
  8
0
  6
Continuous
 62
     7
100
AcDbLine
 10
354.8041683748
 20
1044.245174119
 30
0.0
 11
417.2041683748
 21
1044.245174119
 31
0.0
  0
LINE
  5
EE
330
1F
100
AcDbEntity
  8
0
  6
Continuous
 62
     7
100
AcDbLine
 10
354.8041683748
 20
1040.645174119
 30
0.0
 11
417.2041683748
 21
1040.645174119
 31
0.0
  0
ARC
  5
EF
330
1F
100
AcDbEntity
  8
0
  6
Continuous
 62
     7
100
AcDbCircle
 10
354.8041683748
 20
1047.845174119
 30
0.0
 40
7.2
100
AcDbArc
 50
180.0
 51
270.0
  0
ARC
  5
F0
330
1F
100
AcDbEntity
  8
0
  6
Continuous
 62
     7
100
AcDbCircle
 10
354.8041683748
 20
1047.845174119
 30
0.0
 40
3.6
100
AcDbArc
 50
180.0
 51
270.0
  0
ARC
  5
F1
330
1F
100
AcDbEntity
  8
0
  6
Continuous
 62
     7
100
AcDbCircle
 10
416.6041683748
 20
1030.145174119
 30
0.0
 40
2.5
100
AcDbArc
 50
270.0
 51
0.0
  0
LINE
  5
F2
330
1F
100
AcDbEntity
  8
0
  6
Continuous
 62
     7
100
AcDbLine
 10
411.1041683748
 20
1027.645174119
 30
0.0
 11
416.6041683748
 21
1027.645174119
 31
0.0
  0
ARC
  5
F3
330
1F
100
AcDbEntity
  8
0
  6
Continuous
 62
     7
100
AcDbCircle
 10
416.6041683748
 20
1030.145174119
 30
0.0
 40
2.5
100
AcDbArc
 50
0.0
 51
90.0
  0
LINE
  5
F4
330
1F
100
AcDbEntity
  8
0
  6
Continuous
 62
     7
100
AcDbLine
 10
411.1041683748
 20
1032.645174119
 30
0.0
 11
416.6041683748
 21
1032.645174119
 31
0.0
  0
POINT
  5
F5
330
1F
100
AcDbEntity
  8
0
  6
Continuous
 62
     7
100
AcDbPoint
 10
419.1041683748
 20
1030.145174119
 30
0.0
  0
CIRCLE
  5
F6
330
1F
100
AcDbEntity
  8
0
  6
Continuous
 62
     7
100
AcDbCircle
 10
417.2041683748
 20
1042.445174119
 30
0.0
 40
1.800000000000011
  0
LINE
  5
F7
330
1F
100
AcDbEntity
  8
Provvisorio
  6
Continuous
 62
     7
100
AcDbLine
 10
341.6041683748
 20
1142.645174119
 30
0.0
 11
341.6041683748
 21
1063.645174119
 31
0.0
  0
LINE
  5
F8
330
1F
100
AcDbEntity
  8
0
  6
Continuous
 62
     7
100
AcDbLine
 10
342.2041683748
 20
1081.145174119
 30
0.0
 11
342.2041683748
 21
1096.145174119
 31
0.0
  0
LINE
  5
F9
330
1F
100
AcDbEntity
  8
0
  6
Continuous
 62
     7
100
AcDbLine
 10
341.6041683748
 20
1095.545174119
 30
0.0
 11
341.6041683748
 21
1081.745174119
 31
0.0
  0
LINE
  5
FA
330
1F
100
AcDbEntity
  8
0
  6
Continuous
 62
     7
100
AcDbLine
 10
352.4041683748
 20
1081.145174119
 30
0.0
 11
352.4041683748
 21
1096.145174119
 31
0.0
  0
LINE
  5
FB
330
1F
100
AcDbEntity
  8
0
  6
Continuous
 62
     7
100
AcDbLine
 10
353.0041683748
 20
1095.545174119
 30
0.0
 11
353.0041683748
 21
1081.745174119
 31
0.0
  0
LINE
  5
FC
330
1F
100
AcDbEntity
  8
0
  6
Continuous
 62
     7
100
AcDbLine
 10
342.2041683748
 20
1081.145174119
 30
0.0
 11
352.4041683748
 21
1081.145174119
 31
0.0
  0
LINE
  5
FD
330
1F
100
AcDbEntity
  8
0
  6
Continuous
 62
     7
100
AcDbLine
 10
341.6041683748
 20
1081.745174119
 30
0.0
 11
342.2041683748
 21
1081.145174119
 31
0.0
  0
LINE
  5
FE
330
1F
100
AcDbEntity
  8
0
  6
Continuous
 62
     7
100
AcDbLine
 10
352.4041683748
 20
1081.145174119
 30
0.0
 11
353.0041683748
 21
1081.745174119
 31
0.0
  0
LINE
  5
FF
330
1F
100
AcDbEntity
  8
0
  6
Continuous
 62
     7
100
AcDbLine
 10
342.2041683748
 20
1096.145174119
 30
0.0
 11
352.4041683748
 21
1096.145174119
 31
0.0
  0
LINE
  5
100
330
1F
100
AcDbEntity
  8
0
  6
Continuous
 62
     7
100
AcDbLine
 10
342.2041683748
 20
1096.145174119
 30
0.0
 11
341.6041683748
 21
1095.545174119
 31
0.0
  0
LINE
  5
101
330
1F
100
AcDbEntity
  8
0
  6
Continuous
 62
     7
100
AcDbLine
 10
353.0041683748
 20
1095.545174119
 30
0.0
 11
352.4041683748
 21
1096.145174119
 31
0.0
  0
ARC
  5
102
330
1F
100
AcDbEntity
  8
0
  6
Continuous
 62
     7
100
AcDbCircle
 10
338.6041683748
 20
1142.645174119
 30
0.0
 40
3.0
100
AcDbArc
 50
0.0
 51
90.0
  0
LINE
  5
103
330
1F
100
AcDbEntity
  8
0
  6
Continuous
 62
     7
100
AcDbLine
 10
-317.2887493554
 20
1145.645174119
 30
0.0
 11
-115.2887493554
 21
1145.645174119
 31
0.0
  0
LINE
  5
104
330
1F
100
AcDbEntity
  8
0
  6
Continuous
 62
     7
100
AcDbLine
 10
-115.2887493554
 20
1145.645174119
 30
0.0
 11
-115.2887493554
 21
847.5936140239
 31
0.0
  0
LINE
  5
105
330
1F
100
AcDbEntity
  8
0
  6
HIDDEN2
 62
     7
100
AcDbLine
 10
-150.2887493554
 20
645.645174119
 30
0.0
 11
-282.2887493554
 21
645.645174119
 31
0.0
  0
LINE
  5
106
330
1F
100
AcDbEntity
  8
0
  6
Continuous
 62
     7
100
AcDbLine
 10
-317.2887493554
 20
847.5936140239
 30
0.0
 11
-317.2887493554
 21
1145.645174119
 31
0.0
  0
ARC
  5
107
330
1F
100
AcDbEntity
  8
0
  6
Continuous
 62
     7
100
AcDbCircle
 10
-216.2887493554
 20
750.645174119
 30
0.0
 40
140.0
100
AcDbArc
 50
116.5147746343
 51
120.7114196743
  0
LINE
  5
108
330
1F
100
AcDbEntity
  8
0
  6
HIDDEN2
 62
     7
100
AcDbLine
 10
-282.2887493554
 20
645.645174119
 30
0.0
 11
-317.2887493554
 21
680.645174119
 31
0.0
  0
LINE
  5
109
330
1F
100
AcDbEntity
  8
0
  6
HIDDEN2
 62
     7
100
AcDbLine
 10
-150.2887493554
 20
645.645174119
 30
0.0
 11
-115.2887493554
 21
680.645174119
 31
0.0
  0
LINE
  5
10A
330
1F
100
AcDbEntity
  8
0
  6
HIDDEN2
 62
     7
100
AcDbLine
 10
-317.2887493554
 20
847.5936140239
 30
0.0
 11
-317.2887493554
 21
680.645174119
 31
0.0
  0
LINE
  5
10B
330
1F
100
AcDbEntity
  8
0
  6
HIDDEN2
 62
     7
100
AcDbLine
 10
-115.2887493554
 20
847.5936140239
 30
0.0
 11
-115.2887493554
 21
680.645174119
 31
0.0
  0
LINE
  5
10C
330
1F
100
AcDbEntity
  8
0
  6
Continuous
 62
     7
100
AcDbLine
 10
-278.7887493554
 20
1145.645174119
 30
0.0
 11
-153.7887493554
 21
1145.645174119
 31
0.0
  0
LINE
  5
10D
330
1F
100
AcDbEntity
  8
0
  6
Continuous
 62
     7
100
AcDbLine
 10
-243.7887493554
 20
755.645174119
 30
0.0
 11
-188.7887493554
 21
755.645174119
 31
0.0
  0
LINE
  5
10E
330
1F
100
AcDbEntity
  8
0
  6
Continuous
 62
     7
100
AcDbLine
 10
-278.7887493554
 20
790.645174119
 30
0.0
 11
-278.7887493554
 21
1145.645174119
 31
0.0
  0
LINE
  5
10F
330
1F
100
AcDbEntity
  8
0
  6
Continuous
 62
     7
100
AcDbLine
 10
-153.7887493554
 20
790.645174119
 30
0.0
 11
-153.7887493554
 21
1145.645174119
 31
0.0
  0
LINE
  5
110
330
1F
100
AcDbEntity
  8
0
  6
Continuous
 62
     7
100
AcDbLine
 10
-243.7887493554
 20
755.645174119
 30
0.0
 11
-278.7887493554
 21
790.645174119
 31
0.0
  0
LINE
  5
111
330
1F
100
AcDbEntity
  8
0
  6
Continuous
 62
     7
100
AcDbLine
 10
-188.7887493554
 20
755.645174119
 30
0.0
 11
-153.7887493554
 21
790.645174119
 31
0.0
  0
LINE
  5
112
330
1F
100
AcDbEntity
  8
0
  6
Continuous
 62
     7
100
AcDbLine
 10
-206.2887493554
 20
755.645174119
 30
0.0
 11
-206.2887493554
 21
745.645174119
 31
0.0
  0
LINE
  5
113
330
1F
100
AcDbEntity
  8
0
  6
Continuous
 62
     7
100
AcDbLine
 10
-226.2887493554
 20
745.645174119
 30
0.0
 11
-206.2887493554
 21
745.645174119
 31
0.0
  0
LINE
  5
114
330
1F
100
AcDbEntity
  8
0
  6
Continuous
 62
     7
100
AcDbLine
 10
-226.2887493554
 20
755.645174119
 30
0.0
 11
-226.2887493554
 21
745.645174119
 31
0.0
  0
LINE
  5
115
330
1F
100
AcDbEntity
  8
0
  6
Continuous
 62
     7
100
AcDbLine
 10
-144.7887493554
 20
951.3150471
 30
0.0
 11
-144.7887493554
 21
744.8662419308
 31
0.0
  0
LINE
  5
116
330
1F
100
AcDbEntity
  8
0
  6
Continuous
 62
     7
100
AcDbLine
 10
-139.7887493554
 20
951.3150471
 30
0.0
 11
-139.7887493554
 21
742.795174119
 31
0.0
  0
LINE
  5
117
330
1F
100
AcDbEntity
  8
0
  6
Continuous
 62
     7
100
AcDbLine
 10
-144.7887493554
 20
951.3150471
 30
0.0
 11
-153.7887493554
 21
951.3150471
 31
0.0
  0
LINE
  5
118
330
1F
100
AcDbEntity
  8
0
  6
Continuous
 62
     7
100
AcDbLine
 10
-134.7887493554
 20
963.3150471
 30
0.0
 11
-153.7887493554
 21
963.3150471
 31
0.0
  0
LINE
  5
119
330
1F
100
AcDbEntity
  8
0
  6
Continuous
 62
     7
100
AcDbLine
 10
-144.7887493554
 20
951.3150471
 30
0.0
 11
-139.7887493554
 21
951.3150471
 31
0.0
  0
LINE
  5
11A
330
1F
100
AcDbEntity
  8
0
  6
Continuous
 62
     7
100
AcDbLine
 10
-139.7887493554
 20
951.3150471
 30
0.0
 11
-134.7887493554
 21
951.3150471
 31
0.0
  0
LINE
  5
11B
330
1F
100
AcDbEntity
  8
0
  6
Continuous
 62
     7
100
AcDbLine
 10
-134.7887493554
 20
951.3150471
 30
0.0
 11
-134.7887493554
 21
963.3150471
 31
0.0
  0
LINE
  5
11C
330
1F
100
AcDbEntity
  8
0
  6
Continuous
 62
     7
100
AcDbLine
 10
-144.7887493554
 20
963.3150471
 30
0.0
 11
-134.7887493554
 21
963.3150471
 31
0.0
  0
LINE
  5
11D
330
1F
100
AcDbEntity
  8
0
  6
Continuous
 62
     7
100
AcDbLine
 10
-297.7887493554
 20
963.3150471
 30
0.0
 11
-278.7887493554
 21
963.3150471
 31
0.0
  0
LINE
  5
11E
330
1F
100
AcDbEntity
  8
0
  6
Continuous
 62
     7
100
AcDbLine
 10
-287.7887493554
 20
951.3150471
 30
0.0
 11
-278.7887493554
 21
951.3150471
 31
0.0
  0
LINE
  5
11F
330
1F
100
AcDbEntity
  8
0
  6
Continuous
 62
     7
100
AcDbLine
 10
-292.7887493554
 20
951.3150471
 30
0.0
 11
-292.7887493554
 21
742.795174119
 31
0.0
  0
LINE
  5
120
330
1F
100
AcDbEntity
  8
0
  6
Continuous
 62
     7
100
AcDbLine
 10
-287.7887493554
 20
951.3150471
 30
0.0
 11
-287.7887493554
 21
744.8662419308
 31
0.0
  0
LINE
  5
121
330
1F
100
AcDbEntity
  8
0
  6
Continuous
 62
     7
100
AcDbLine
 10
-297.7887493554
 20
951.3150471
 30
0.0
 11
-297.7887493554
 21
963.3150471
 31
0.0
  0
LINE
  5
122
330
1F
100
AcDbEntity
  8
0
  6
Continuous
 62
     7
100
AcDbLine
 10
-287.7887493554
 20
963.3150471
 30
0.0
 11
-297.7887493554
 21
963.3150471
 31
0.0
  0
LINE
  5
123
330
1F
100
AcDbEntity
  8
0
  6
Continuous
 62
     7
100
AcDbLine
 10
-292.7887493554
 20
951.3150471
 30
0.0
 11
-297.7887493554
 21
951.3150471
 31
0.0
  0
LINE
  5
124
330
1F
100
AcDbEntity
  8
0
  6
Continuous
 62
     7
100
AcDbLine
 10
-287.7887493554
 20
951.3150471
 30
0.0
 11
-292.7887493554
 21
951.3150471
 31
0.0
  0
LINE
  5
125
330
1F
100
AcDbEntity
  8
0
  6
Continuous
 62
     7
100
AcDbLine
 10
-292.7887493554
 20
742.795174119
 30
0.0
 11
-257.4334102961
 21
707.4398350596
 31
0.0
  0
LINE
  5
126
330
1F
100
AcDbEntity
  8
0
  6
Continuous
 62
     7
100
AcDbLine
 10
-287.7887493554
 20
744.8662419308
 30
0.0
 11
-253.8978763902
 21
710.9753689656
 31
0.0
  0
LINE
  5
127
330
1F
100
AcDbEntity
  8
0
  6
Continuous
 62
     7
100
AcDbLine
 10
-139.7887493554
 20
742.795174119
 30
0.0
 11
-175.1440884148
 21
707.4398350596
 31
0.0
  0
LINE
  5
128
330
1F
100
AcDbEntity
  8
0
  6
Continuous
 62
     7
100
AcDbLine
 10
-144.7887493554
 20
744.8662419308
 30
0.0
 11
-178.6796223207
 21
710.9753689656
 31
0.0
  0
LINE
  5
129
330
1F
100
AcDbEntity
  8
0
  6
Continuous
 62
     7
100
AcDbLine
 10
-253.8978763902
 20
710.9753689656
 30
0.0
 11
-178.6796223207
 21
710.9753689656
 31
0.0
  0
LINE
  5
12A
330
1F
100
AcDbEntity
  8
0
  6
Continuous
 62
     7
100
AcDbLine
 10
-257.4334102961
 20
707.4398350596
 30
0.0
 11
-175.1440884148
 21
707.4398350596
 31
0.0
  0
ARC
  5
12B
330
1F
100
AcDbEntity
  8
0
  6
Continuous
 62
     7
100
AcDbCircle
 10
-216.2887493554
 20
750.645174119
 30
0.0
 40
140.0
100
AcDbArc
 50
59.2885803257
 51
63.4852253657
  0
LINE
  5
12C
330
1F
100
AcDbEntity
  8
0
  6
Continuous
 62
     7
100
AcDbLine
 10
-139.7887493554
 20
870.8699635761
 30
0.0
 11
-139.7887493554
 21
867.8959736898
 31
0.0
  0
LINE
  5
12D
330
1F
100
AcDbEntity
  8
0
  6
Continuous
 62
     7
100
AcDbLine
 10
-292.7887493554
 20
744.9164944625
 30
0.0
 11
-344.5280275235
 21
693.1772162945
 31
0.0
  0
LINE
  5
12E
330
1F
100
AcDbEntity
  8
0
  6
Continuous
 62
     7
100
AcDbLine
 10
-291.7280891837
 20
741.7345139472
 30
0.0
 11
-342.7919421141
 21
690.6706610167
 31
0.0
  0
LINE
  5
12F
330
1F
100
AcDbEntity
  8
0
  6
Continuous
 62
     7
100
AcDbLine
 10
-258.4940704679
 20
708.5004952314
 30
0.0
 11
-315.3086578063
 21
651.685907893
 31
0.0
  0
LINE
  5
130
330
1F
100
AcDbEntity
  8
0
  6
Continuous
 62
     7
100
AcDbLine
 10
-255.3120899526
 20
707.4398350596
 30
0.0
 11
-313.1873374627
 21
649.5645875495
 31
0.0
  0
LINE
  5
131
330
1F
100
AcDbEntity
  8
0
  6
Continuous
 62
     7
100
AcDbLine
 10
-177.2654087583
 20
707.4398350596
 30
0.0
 11
-119.3901612482
 21
649.5645875495
 31
0.0
  0
LINE
  5
132
330
1F
100
AcDbEntity
  8
0
  6
Continuous
 62
     7
100
AcDbLine
 10
-174.083428243
 20
708.5004952314
 30
0.0
 11
-117.2688409046
 21
651.685907893
 31
0.0
  0
LINE
  5
133
330
1F
100
AcDbEntity
  8
0
  6
Continuous
 62
     7
100
AcDbLine
 10
-140.8494095272
 20
741.7345139472
 30
0.0
 11
-89.7855565967
 21
690.6706610167
 31
0.0
  0
LINE
  5
134
330
1F
100
AcDbEntity
  8
0
  6
Continuous
 62
     7
100
AcDbLine
 10
-139.7887493554
 20
744.9164944625
 30
0.0
 11
-88.0494711874
 21
693.1772162945
 31
0.0
  0
LINE
  5
135
330
1F
100
AcDbEntity
  8
0
  6
Continuous
 62
     7
100
AcDbLine
 10
902.9917157472
 20
595.645174119
 30
0.0
 11
862.9917157472
 21
595.645174119
 31
0.0
  0
LINE
  5
136
330
1F
100
AcDbEntity
  8
0
  6
Continuous
 62
     7
100
AcDbLine
 10
862.9917157472
 20
600.645174119
 30
0.0
 11
902.9917157472
 21
600.645174119
 31
0.0
  0
LINE
  5
137
330
1F
100
AcDbEntity
  8
0
  6
Continuous
 62
     7
100
AcDbLine
 10
862.9917157472
 20
595.645174119
 30
0.0
 11
862.9917157472
 21
600.645174119
 31
0.0
  0
LINE
  5
138
330
1F
100
AcDbEntity
  8
0
  6
Continuous
 62
     7
100
AcDbLine
 10
902.9917157472
 20
600.645174119
 30
0.0
 11
902.9917157472
 21
595.645174119
 31
0.0
  0
LINE
  5
139
330
1F
100
AcDbEntity
  8
0
  6
Continuous
 62
     7
100
AcDbLine
 10
1302.9917157472
 20
600.645174119
 30
0.0
 11
1342.9917157472
 21
600.645174119
 31
0.0
  0
LINE
  5
13A
330
1F
100
AcDbEntity
  8
0
  6
Continuous
 62
     7
100
AcDbLine
 10
1342.9917157472
 20
595.645174119
 30
0.0
 11
1302.9917157472
 21
595.645174119
 31
0.0
  0
LINE
  5
13B
330
1F
100
AcDbEntity
  8
0
  6
Continuous
 62
     7
100
AcDbLine
 10
1302.9917157472
 20
595.645174119
 30
0.0
 11
1302.9917157472
 21
600.645174119
 31
0.0
  0
LINE
  5
13C
330
1F
100
AcDbEntity
  8
0
  6
Continuous
 62
     7
100
AcDbLine
 10
1342.9917157472
 20
600.645174119
 30
0.0
 11
1342.9917157472
 21
595.645174119
 31
0.0
  0
LINE
  5
13D
330
1F
100
AcDbEntity
  8
0
  6
Continuous
 62
     7
100
AcDbLine
 10
219.1041683748
 20
595.645174119
 30
0.0
 11
179.1041683748
 21
595.645174119
 31
0.0
  0
LINE
  5
13E
330
1F
100
AcDbEntity
  8
0
  6
Continuous
 62
     7
100
AcDbLine
 10
179.1041683748
 20
600.645174119
 30
0.0
 11
219.1041683748
 21
600.645174119
 31
0.0
  0
LINE
  5
13F
330
1F
100
AcDbEntity
  8
0
  6
Continuous
 62
     7
100
AcDbLine
 10
179.1041683748
 20
595.645174119
 30
0.0
 11
179.1041683748
 21
600.645174119
 31
0.0
  0
LINE
  5
140
330
1F
100
AcDbEntity
  8
0
  6
Continuous
 62
     7
100
AcDbLine
 10
219.1041683748
 20
600.645174119
 30
0.0
 11
219.1041683748
 21
595.645174119
 31
0.0
  0
LINE
  5
141
330
1F
100
AcDbEntity
  8
0
  6
Continuous
 62
     7
100
AcDbLine
 10
339.1041683748
 20
600.645174119
 30
0.0
 11
379.1041683748
 21
600.645174119
 31
0.0
  0
LINE
  5
142
330
1F
100
AcDbEntity
  8
0
  6
Continuous
 62
     7
100
AcDbLine
 10
379.1041683748
 20
595.645174119
 30
0.0
 11
339.1041683748
 21
595.645174119
 31
0.0
  0
LINE
  5
143
330
1F
100
AcDbEntity
  8
0
  6
Continuous
 62
     7
100
AcDbLine
 10
339.1041683748
 20
595.645174119
 30
0.0
 11
339.1041683748
 21
600.645174119
 31
0.0
  0
LINE
  5
144
330
1F
100
AcDbEntity
  8
0
  6
Continuous
 62
     7
100
AcDbLine
 10
379.1041683748
 20
600.645174119
 30
0.0
 11
379.1041683748
 21
595.645174119
 31
0.0
  0
LINE
  5
145
330
1F
100
AcDbEntity
  8
0
  6
Continuous
 62
     7
100
AcDbLine
 10
196.6041683748
 20
600.645174119
 30
0.0
 11
196.6041683748
 21
620.645174119
 31
0.0
  0
LINE
  5
146
330
1F
100
AcDbEntity
  8
0
  6
Continuous
 62
     7
100
AcDbLine
 10
201.6041683748
 20
600.645174119
 30
0.0
 11
201.6041683748
 21
620.645174119
 31
0.0
  0
LINE
  5
147
330
1F
100
AcDbEntity
  8
0
  6
Continuous
 62
     7
100
AcDbLine
 10
361.6041683748
 20
600.645174119
 30
0.0
 11
361.6041683748
 21
620.645174119
 31
0.0
  0
LINE
  5
148
330
1F
100
AcDbEntity
  8
0
  6
Continuous
 62
     7
100
AcDbLine
 10
356.6041683748
 20
600.645174119
 30
0.0
 11
356.6041683748
 21
620.645174119
 31
0.0
  0
LINE
  5
149
330
1F
100
AcDbEntity
  8
0
  6
Continuous
 62
     7
100
AcDbLine
 10
880.4917157472
 20
600.645174119
 30
0.0
 11
880.4917157472
 21
620.645174119
 31
0.0
  0
LINE
  5
14A
330
1F
100
AcDbEntity
  8
0
  6
Continuous
 62
     7
100
AcDbLine
 10
885.4917157472
 20
600.645174119
 30
0.0
 11
885.4917157472
 21
620.645174119
 31
0.0
  0
LINE
  5
14B
330
1F
100
AcDbEntity
  8
0
  6
Continuous
 62
     7
100
AcDbLine
 10
1320.4917157472
 20
600.645174119
 30
0.0
 11
1320.4917157472
 21
620.645174119
 31
0.0
  0
LINE
  5
14C
330
1F
100
AcDbEntity
  8
0
  6
Continuous
 62
     7
100
AcDbLine
 10
1325.4917157472
 20
600.645174119
 30
0.0
 11
1325.4917157472
 21
620.645174119
 31
0.0
  0
CIRCLE
  5
14E
330
1F
100
AcDbEntity
  8
_Translation
  6
Continuous
 62
     7
100
AcDbCircle
 10
1178.1805396838
 20
1440.8404714932
 30
0.0
 40
0.01
  0
CIRCLE
  5
14F
330
1F
100
AcDbEntity
  8
_Translation
  6
Continuous
 62
     7
100
AcDbCircle
 10
1342.9917157472
 20
595.645174119
 30
0.0
 40
0.01
  0
LINE
  5
150
330
1F
100
AcDbEntity
  8
_Translation
  6
Continuous
 62
     7
100
AcDbLine
 10
1482.242185705
 20
1440.8404714932
 30
0.0
 11
1482.242185705
 21
595.645174119
 31
0.0
  0
CIRCLE
  5
151
330
1F
100
AcDbEntity
  8
_Translation
  6
Continuous
 62
     7
100
AcDbCircle
 10
1352.9917157472
 20
620.645174119
 30
0.0
 40
0.01
  0
CIRCLE
  5
152
330
1F
100
AcDbEntity
  8
_Translation
  6
Continuous
 62
     7
100
AcDbCircle
 10
809.9917157472
 20
1030.145174119
 30
0.0
 40
0.01
  0
LINE
  5
153
330
1F
100
AcDbEntity
  8
_Translation
  6
Continuous
 62
     7
100
AcDbLine
 10
1352.9917157472
 20
1543.4723109745
 30
0.0
 11
809.9917157472
 21
1543.4723109745
 31
0.0
  0
CIRCLE
  5
154
330
1F
100
AcDbEntity
  8
_Translation
  6
Continuous
 62
     7
100
AcDbCircle
 10
341.6041683748
 20
1142.645174119
 30
0.0
 40
0.01
  0
CIRCLE
  5
155
330
1F
100
AcDbEntity
  8
_Translation
  6
Continuous
 62
     7
100
AcDbCircle
 10
379.1041683748
 20
595.645174119
 30
0.0
 40
0.01
  0
LINE
  5
156
330
1F
100
AcDbEntity
  8
_Translation
  6
Continuous
 62
     7
100
AcDbLine
 10
577.7564030705
 20
1142.645174119
 30
0.0
 11
577.7564030705
 21
595.645174119
 31
0.0
  0
CIRCLE
  5
157
330
1F
100
AcDbEntity
  8
_Translation
  6
Continuous
 62
     7
100
AcDbCircle
 10
139.1041683748
 20
1030.145174119
 30
0.0
 40
0.01
  0
CIRCLE
  5
158
330
1F
100
AcDbEntity
  8
_Translation
  6
Continuous
 62
     7
100
AcDbCircle
 10
419.1041683748
 20
1030.145174119
 30
0.0
 40
0.01
  0
LINE
  5
159
330
1F
100
AcDbEntity
  8
_Translation
  6
Continuous
 62
     7
100
AcDbLine
 10
139.1041683748
 20
444.7322695359
 30
0.0
 11
419.1041683748
 21
444.7322695359
 31
0.0
  0
CIRCLE
  5
15A
330
1F
100
AcDbEntity
  8
_Translation
  6
Continuous
 62
     7
100
AcDbCircle
 10
-216.2887493554
 20
602.645174119
 30
0.0
 40
0.01
  0
CIRCLE
  5
15B
330
1F
100
AcDbEntity
  8
_Translation
  6
Continuous
 62
     7
100
AcDbCircle
 10
-216.2887493554
 20
1145.645174119
 30
0.0
 40
0.01
  0
LINE
  5
15C
330
1F
100
AcDbEntity
  8
_Translation
  6
Continuous
 62
     7
100
AcDbLine
 10
-497.9013237102
 20
602.645174119
 30
0.0
 11
-497.9013237102
 21
1145.645174119
 31
0.0
  0
ARC
  5
15D
330
1F
100
AcDbEntity
  8
0
  6
Continuous
 62
     7
100
AcDbCircle
 10
-216.2887493554
 20
742.645174119
 30
0.0
 40
137.5
100
AcDbArc
 50
123.804690118
 51
56.195309882
  0
CIRCLE
  5
15E
330
1F
100
AcDbEntity
  8
_Translation
  6
Continuous
 62
     7
100
AcDbCircle
 10
-317.2887493554
 20
1145.645174119
 30
0.0
 40
0.01
  0
CIRCLE
  5
15F
330
1F
100
AcDbEntity
  8
_Translation
  6
Continuous
 62
     7
100
AcDbCircle
 10
-115.2887493554
 20
1145.645174119
 30
0.0
 40
0.01
  0
LINE
  5
160
330
1F
100
AcDbEntity
  8
_Translation
  6
Continuous
 62
     7
100
AcDbLine
 10
-317.2887493554
 20
1205.1126275963
 30
0.0
 11
-115.2887493554
 21
1205.1126275963
 31
0.0
  0
CIRCLE
  5
161
330
1F
100
AcDbEntity
  8
_Translation
  6
Continuous
 62
     7
100
AcDbCircle
 10
216.6041683748
 20
1142.645174119
 30
0.0
 40
0.01
  0
CIRCLE
  5
162
330
1F
100
AcDbEntity
  8
_Translation
  6
Continuous
 62
     7
100
AcDbCircle
 10
341.6041683748
 20
1142.645174119
 30
0.0
 40
0.01
  0
LINE
  5
163
330
1F
100
AcDbEntity
  8
_Translation
  6
Continuous
 62
     7
100
AcDbLine
 10
216.6041683748
 20
1205.1126275963
 30
0.0
 11
341.6041683748
 21
1205.1126275963
 31
0.0
  0
LINE
  5
164
330
1F
100
AcDbEntity
  8
0
  6
Continuous
 62
     7
100
AcDbLine
 10
380.1041683748
 20
820.645174119
 30
0.0
 11
178.1041683748
 21
820.645174119
 31
0.0
  0
CIRCLE
  5
165
330
1F
100
AcDbEntity
  8
_Translation
  6
Continuous
 62
     7
100
AcDbCircle
 10
862.9917157472
 20
595.645174119
 30
0.0
 40
0.01
  0
CIRCLE
  5
166
330
1F
100
AcDbEntity
  8
_Translation
  6
Continuous
 62
     7
100
AcDbCircle
 10
852.9917157472
 20
620.645174119
 30
0.0
 40
0.01
  0
LINE
  5
167
330
1F
100
AcDbEntity
  8
_Translation
  6
Continuous
 62
     7
100
AcDbLine
 10
781.856327335
 20
595.645174119
 30
0.0
 11
781.856327335
 21
620.645174119
 31
0.0
  0
LINE
  5
168
330
1F
100
AcDbEntity
  8
Provvisorio
  6
HIDDEN2
 62
     7
100
AcDbLine
 10
819.9917157472
 20
1027.645174119
 30
0.0
 11
819.9917157472
 21
855.645174119
 31
0.0
  0
ARC
  5
169
330
1F
100
AcDbEntity
  8
Provvisorio
  6
HIDDEN2
 62
     7
100
AcDbCircle
 10
842.9917157472
 20
855.645174119
 30
0.0
 40
23.0
100
AcDbArc
 50
180.0
 51
270.0
  0
LINE
  5
16A
330
1F
100
AcDbEntity
  8
Provvisorio
  6
HIDDEN2
 62
     7
100
AcDbLine
 10
1056.9917157472
 20
832.645174119
 30
0.0
 11
842.9917157472
 21
832.645174119
 31
0.0
  0
ARC
  5
16B
330
1F
100
AcDbEntity
  8
Provvisorio
  6
HIDDEN2
 62
     7
100
AcDbCircle
 10
1056.9917157472
 20
855.645174119
 30
0.0
 40
23.0
100
AcDbArc
 50
270.0
 51
0.0
  0
LINE
  5
16C
330
1F
100
AcDbEntity
  8
Provvisorio
  6
HIDDEN2
 62
     7
100
AcDbLine
 10
1079.9917157472
 20
1027.645174119
 30
0.0
 11
1079.9917157472
 21
855.645174119
 31
0.0
  0
CIRCLE
  5
16D
330
1F
100
AcDbEntity
  8
_Translation
  6
Continuous
 62
     7
100
AcDbCircle
 10
819.9917157472
 20
944.645174119
 30
0.0
 40
0.01
  0
CIRCLE
  5
16E
330
1F
100
AcDbEntity
  8
_Translation
  6
Continuous
 62
     7
100
AcDbCircle
 10
1079.9917157472
 20
944.645174119
 30
0.0
 40
0.01
  0
LINE
  5
16F
330
1F
100
AcDbEntity
  8
_Translation
  6
Continuous
 62
     7
100
AcDbLine
 10
819.9917157472
 20
905.3515962699
 30
0.0
 11
1079.9917157472
 21
905.3515962699
 31
0.0
  0
CIRCLE
  5
170
330
1F
100
AcDbEntity
  8
_Translation
  6
Continuous
 62
     7
100
AcDbCircle
 10
842.9917157472
 20
832.645174119
 30
0.0
 40
0.01
  0
CIRCLE
  5
171
330
1F
100
AcDbEntity
  8
_Translation
  6
Continuous
 62
     7
100
AcDbCircle
 10
817.9917157472
 20
1032.645174119
 30
0.0
 40
0.01
  0
LINE
  5
172
330
1F
100
AcDbEntity
  8
_Translation
  6
Continuous
 62
     7
100
AcDbLine
 10
781.856327335
 20
832.645174119
 30
0.0
 11
781.856327335
 21
1032.645174119
 31
0.0
  0
LINE
  5
173
330
1F
100
AcDbEntity
  8
0
  6
Continuous
 62
     7
100
AcDbLine
 10
1161.1917157472
 20
1081.3643774593
 30
0.0
 11
1161.1917157472
 21
1048.045174119
 31
0.0
  0
LINE
  5
174
330
1F
100
AcDbEntity
  8
0
  6
Continuous
 62
     7
100
AcDbLine
 10
1164.7917157472
 20
1081.3643774593
 30
0.0
 11
1164.7917157472
 21
1048.045174119
 31
0.0
  0
LINE
  5
175
330
1F
100
AcDbEntity
  8
0
  6
Continuous
 62
     7
100
AcDbLine
 10
929.7689759707
 20
1077.045174119
 30
0.0
 11
850.1247795637
 21
1044.245174119
 31
0.0
  0
LINE
  5
176
330
1F
100
AcDbEntity
  8
0
  6
Continuous
 62
     7
100
AcDbLine
 10
923.9413518433
 20
1074.645174119
 30
0.0
 11
1008.4396447568
 21
1074.645174119
 31
0.0
  0
LINE
  5
177
330
1F
100
AcDbEntity
  8
0
  6
Continuous
 62
     7
100
AcDbLine
 10
929.7689759707
 20
1077.045174119
 30
0.0
 11
1009.5707212633
 21
1077.045174119
 31
0.0
  0
CIRCLE
  5
178
330
1F
100
AcDbEntity
  8
_Translation
  6
Continuous
 62
     7
100
AcDbCircle
 10
882.9917157472
 20
595.645174119
 30
0.0
 40
0.01
  0
CIRCLE
  5
179
330
1F
100
AcDbEntity
  8
_Translation
  6
Continuous
 62
     7
100
AcDbCircle
 10
1322.9917157472
 20
595.645174119
 30
0.0
 40
0.01
  0
LINE
  5
17A
330
1F
100
AcDbEntity
  8
_Translation
  6
Continuous
 62
     7
100
AcDbLine
 10
882.9917157472
 20
444.7322695359
 30
0.0
 11
1322.9917157472
 21
444.7322695359
 31
0.0
  0
CIRCLE
  5
17B
330
1F
100
AcDbEntity
  8
_Translation
  6
Continuous
 62
     7
100
AcDbCircle
 10
199.1041683748
 20
595.645174119
 30
0.0
 40
0.01
  0
CIRCLE
  5
17C
330
1F
100
AcDbEntity
  8
_Translation
  6
Continuous
 62
     7
100
AcDbCircle
 10
359.1041683748
 20
595.645174119
 30
0.0
 40
0.01
  0
LINE
  5
17D
330
1F
100
AcDbEntity
  8
_Translation
  6
Continuous
 62
     7
100
AcDbLine
 10
199.1041683748
 20
532.2604404177
 30
0.0
 11
359.1041683748
 21
532.2604404177
 31
0.0
  0
CIRCLE
  5
17E
330
1F
100
AcDbEntity
  8
_Translation
  6
Continuous
 62
     7
100
AcDbCircle
 10
862.9917157472
 20
595.645174119
 30
0.0
 40
0.01
  0
CIRCLE
  5
17F
330
1F
100
AcDbEntity
  8
_Translation
  6
Continuous
 62
     7
100
AcDbCircle
 10
902.9917157472
 20
595.645174119
 30
0.0
 40
0.01
  0
LINE
  5
180
330
1F
100
AcDbEntity
  8
_Translation
  6
Continuous
 62
     7
100
AcDbLine
 10
862.9917157472
 20
475.6689668364
 30
0.0
 11
902.9917157472
 21
475.6689668364
 31
0.0
  0
LINE
  5
181
330
1F
100
AcDbEntity
  8
0
  6
HIDDEN2
 62
     7
100
AcDbLine
 10
1176.0953190086
 20
1439.3803842576
 30
0.0
 11
1116.6586437621
 21
1102.2982485132
 31
0.0
  0
LINE
  5
182
330
1F
100
AcDbEntity
  8
0
  6
HIDDEN2
 62
     7
100
AcDbLine
 10
1148.3389455711
 20
1261.2345944634
 30
0.0
 11
1120.2039516729
 21
1101.6731150736
 31
0.0
  0
LINE
  5
183
330
1F
100
AcDbEntity
  8
0
  6
HIDDEN2
 62
     7
100
AcDbLine
 10
1161.6464580233
 20
1095.4127646545
 30
0.0
 11
1197.4907109811
 21
1298.6956247918
 31
0.0
  0
LINE
  5
184
330
1F
100
AcDbEntity
  8
0
  6
HIDDEN2
 62
     7
100
AcDbLine
 10
1166.5704967884
 20
1094.5445237661
 30
0.0
 11
1202.4147497462
 21
1297.8273839034
 31
0.0
  0
LINE
  5
185
330
1F
100
AcDbEntity
  8
0
  6
HIDDEN2
 62
     7
100
AcDbLine
 10
1166.0870982493
 20
1247.2898374649
 30
0.0
 11
1139.1764925182
 21
1094.6722084272
 31
0.0
  0
LINE
  5
186
330
1F
100
AcDbEntity
  8
0
  6
HIDDEN2
 62
     7
100
AcDbLine
 10
1168.2542274824
 20
1245.7591889256
 30
0.0
 11
1141.5400311255
 21
1094.2554528008
 31
0.0
  0
LINE
  5
187
330
1F
100
AcDbEntity
  8
0
  6
HIDDEN2
 62
     7
100
AcDbLine
 10
1175.568288644
 20
1240.5932501056
 30
0.0
 11
1149.5169739249
 21
1092.8489025617
 31
0.0
  0
LINE
  5
188
330
1F
100
AcDbEntity
  8
0
  6
HIDDEN2
 62
     7
100
AcDbLine
 10
1177.7354178771
 20
1239.0626015663
 30
0.0
 11
1151.8805125321
 21
1092.4321469353
 31
0.0
  0
LINE
  5
189
330
1F
100
AcDbEntity
  8
0
  6
HIDDEN2
 62
     7
100
AcDbLine
 10
1157.8534230379
 20
1253.5750333745
 30
0.0
 11
1130.1162611905
 21
1096.2697716618
 31
0.0
  0
LINE
  5
18A
330
1F
100
AcDbEntity
  8
0
  6
HIDDEN2
 62
     7
100
AcDbLine
 10
1155.6862938048
 20
1255.1056819137
 30
0.0
 11
1127.7527225833
 21
1096.6865272882
 31
0.0
  0
LINE
  5
18B
330
1F
100
AcDbEntity
  8
0
  6
HIDDEN2
 62
     7
100
AcDbLine
 10
1190.7150672676
 20
1326.4949003393
 30
0.0
 11
1176.0420926872
 21
1243.2803263618
 31
0.0
  0
LINE
  5
18C
330
1F
100
AcDbEntity
  8
0
  6
HIDDEN2
 62
     7
100
AcDbLine
 10
1186.1534770139
 20
1347.2708773784
 30
0.0
 11
1168.7280315256
 21
1248.4462651819
 31
0.0
  0
LINE
  5
18D
330
1F
100
AcDbEntity
  8
0
  6
HIDDEN2
 62
     7
100
AcDbLine
 10
1184.8018947165
 20
1353.4267224271
 30
0.0
 11
1166.5609022925
 21
1249.9769137211
 31
0.0
  0
LINE
  5
18E
330
1F
100
AcDbEntity
  8
0
  6
HIDDEN2
 62
     7
100
AcDbLine
 10
1179.6208292432
 20
1377.0241284469
 30
0.0
 11
1158.3272270811
 21
1256.2621096307
 31
0.0
  0
LINE
  5
18F
330
1F
100
AcDbEntity
  8
0
  6
HIDDEN2
 62
     7
100
AcDbLine
 10
1178.2692469458
 20
1383.1799734955
 30
0.0
 11
1156.160097848
 21
1257.79275817
 31
0.0
  0
LINE
  5
190
330
1F
100
AcDbEntity
  8
0
  6
HIDDEN2
 62
     7
100
AcDbLine
 10
1173.595024834
 20
1404.4689376221
 30
0.0
 11
1148.8127496143
 21
1263.9216707196
 31
0.0
  0
LINE
  5
191
330
1F
100
AcDbEntity
  8
0
  6
HIDDEN2
 62
     7
100
AcDbLine
 10
1192.066649565
 20
1320.3390552906
 30
0.0
 11
1178.2092219203
 21
1241.7496778225
 31
0.0
  0
LINE
  5
192
330
1F
100
AcDbEntity
  8
0
  6
HIDDEN2
 62
     7
100
AcDbLine
 10
1192.0302473012
 20
1380.5996978666
 30
0.0
 11
1187.1461099407
 21
1352.9003784498
 31
0.0
  0
LINE
  5
193
330
1F
100
AcDbEntity
  8
0
  6
HIDDEN2
 62
     7
100
AcDbLine
 10
1189.6667086939
 20
1381.016453493
 30
0.0
 11
1185.7963187391
 21
1359.0663813074
 31
0.0
  0
LINE
  5
194
330
1F
100
AcDbEntity
  8
0
  6
HIDDEN2
 62
     7
100
AcDbLine
 10
1192.066649565
 20
1320.3390552906
 30
0.0
 11
1173.595024834
 21
1404.4689376221
 31
0.0
  0
LINE
  5
195
330
1F
100
AcDbEntity
  8
0
  6
HIDDEN2
 62
     7
100
AcDbLine
 10
1198.6411257924
 20
1300.3898119966
 30
0.0
 11
1174.6043000258
 21
1410.1928216684
 31
0.0
  0
LINE
  5
196
330
1F
100
AcDbEntity
  8
0
  6
HIDDEN2
 62
     7
100
AcDbLine
 10
1179.6406269195
 20
1438.755250818
 30
0.0
 11
1174.6043000258
 21
1410.1928216684
 31
0.0
  0
ARC
  5
197
330
1F
100
AcDbEntity
  8
0
  6
HIDDEN2
 62
     7
100
AcDbCircle
 10
1177.867972964
 20
1439.0678175378
 30
0.0
 40
1.8
100
AcDbArc
 50
170.0
 51
350.0
  0
ARC
  5
198
330
1F
100
AcDbEntity
  8
0
  6
HIDDEN2
 62
     7
100
AcDbCircle
 10
1177.867972964
 20
1439.0678175378
 30
0.0
 40
1.8
100
AcDbArc
 50
350.0
 51
170.0
  0
LINE
  5
199
330
1F
100
AcDbEntity
  8
0
  6
HIDDEN2
 62
     7
100
AcDbLine
 10
1182.9946061446
 20
1409.9788172106
 30
0.0
 11
1179.2723279314
 21
1388.8687284525
 31
0.0
  0
LINE
  5
19A
330
1F
100
AcDbEntity
  8
0
  6
HIDDEN2
 62
     7
100
AcDbLine
 10
1185.3581447518
 20
1409.5620615842
 30
0.0
 11
1180.622119133
 21
1382.7027255949
 31
0.0
  0
ARC
  5
19B
330
1F
100
AcDbEntity
  8
0
  6
HIDDEN2
 62
     7
100
AcDbCircle
 10
1184.1763754482
 20
1409.7704393974
 30
0.0
 40
1.2
100
AcDbArc
 50
350.0
 51
170.0
  0
ARC
  5
19C
330
1F
100
AcDbEntity
  8
0
  6
HIDDEN2
 62
     7
100
AcDbCircle
 10
1190.8484779975
 20
1380.8080756798
 30
0.0
 40
1.2
100
AcDbArc
 50
350.0
 51
170.0
  0
LINE
  5
19D
330
1F
100
AcDbEntity
  8
0
  6
HIDDEN2
 62
     7
100
AcDbLine
 10
1192.4862542069
 20
1336.5398006273
 30
0.0
 11
1191.6473767682
 21
1331.7822902605
 31
0.0
  0
LINE
  5
19E
330
1F
100
AcDbEntity
  8
0
  6
HIDDEN2
 62
     7
100
AcDbLine
 10
1197.6190613222
 20
1351.8283471443
 30
0.0
 11
1194.04880722
 21
1331.5804299633
 31
0.0
  0
LINE
  5
19F
330
1F
100
AcDbEntity
  8
0
  6
HIDDEN2
 62
     7
100
AcDbLine
 10
1195.255522715
 20
1352.2451027707
 30
0.0
 11
1192.0668154876
 21
1334.1610454439
 31
0.0
  0
ARC
  5
1A0
330
1F
100
AcDbEntity
  8
0
  6
HIDDEN2
 62
     7
100
AcDbCircle
 10
1196.4372920186
 20
1352.0367249575
 30
0.0
 40
1.2
100
AcDbArc
 50
350.0
 51
170.0
  0
LINE
  5
1A1
330
1F
100
AcDbEntity
  8
0
  6
HIDDEN2
 62
     7
100
AcDbLine
 10
1197.1326058729
 20
1296.6647098023
 30
0.0
 11
1192.066649565
 21
1320.3390552906
 31
0.0
  0
LINE
  5
1A2
330
1F
100
AcDbEntity
  8
0
  6
HIDDEN2
 62
     7
100
AcDbLine
 10
1194.04880722
 20
1331.5804299633
 30
0.0
 11
1193.0759247568
 21
1326.0629393369
 31
0.0
  0
POINT
  5
1A3
330
1F
100
AcDbEntity
  8
0
  6
HIDDEN2
 62
     7
100
AcDbPoint
 10
1200.3868508078
 20
1300.7235237301
 30
0.0
  0
ARC
  5
1A4
330
1F
100
AcDbEntity
  8
0
  6
HIDDEN2
 62
     7
100
AcDbCircle
 10
1199.9527303636
 20
1298.2615043476
 30
0.0
 40
2.5
100
AcDbArc
 50
80.0
 51
170.0
  0
ARC
  5
1A5
330
1F
100
AcDbEntity
  8
0
  6
HIDDEN2
 62
     7
100
AcDbCircle
 10
1199.9527303636
 20
1298.2615043476
 30
0.0
 40
2.5
100
AcDbArc
 50
350.0
 51
80.0
  0
LINE
  5
1A6
330
1F
100
AcDbEntity
  8
0
  6
HIDDEN2
 62
     7
100
AcDbLine
 10
1186.3526000804
 20
1235.5282589355
 30
0.0
 11
1148.8127496143
 21
1263.9216707196
 31
0.0
  0
LINE
  5
1A7
330
1F
100
AcDbEntity
  8
0
  6
HIDDEN2
 62
     7
100
AcDbLine
 10
1185.8787960372
 20
1232.8411826792
 30
0.0
 11
1148.3389455711
 21
1261.2345944634
 31
0.0
  0
LINE
  5
1A8
330
1F
100
AcDbEntity
  8
0
  6
Continuous
 62
     7
100
AcDbLine
 10
1155.5089640289
 20
1088.1368172355
 30
0.0
 11
1122.6959542551
 21
1093.9226361768
 31
0.0
  0
LINE
  5
1A9
330
1F
100
AcDbEntity
  8
0
  6
Continuous
 62
     7
100
AcDbLine
 10
1156.1340974685
 20
1091.6821251463
 30
0.0
 11
1123.3210876947
 21
1097.4679440877
 31
0.0
  0
ARC
  5
1AA
330
1F
100
AcDbEntity
  8
0
  6
Continuous
 62
     7
100
AcDbCircle
 10
1123.947757563
 20
1101.1886751005
 30
0.0
 40
7.373081659759249
100
AcDbArc
 50
171.3446891056
 51
260.2249601004
  0
ARC
  5
1AB
330
1F
100
AcDbEntity
  8
0
  6
Continuous
 62
     7
100
AcDbCircle
 10
1123.9484828196
 20
1101.1909023207
 30
0.0
 40
3.775452641399521
100
AcDbArc
 50
172.6619576528
 51
260.4343577451
  0
LINE
  5
1AC
330
1F
100
AcDbEntity
  8
Provvisorio
  6
Continuous
 62
     7
100
AcDbLine
 10
1003.9618349219
 20
1060.645174119
 30
0.0
 11
1107.9917157472
 21
1060.645174119
 31
0.0
  0
LINE
  5
1AD
330
1F
100
AcDbEntity
  8
0
  6
Continuous
 62
     7
100
AcDbLine
 10
980.1192350389
 20
1032.645174119
 30
0.0
 11
997.8093698994
 21
1032.645174119
 31
0.0
  0
HATCH
  5
1AE
330
1F
100
AcDbEntity
  8
0
  6
Continuous
 62
   150
100
AcDbHatch
 10
0.0
 20
0.0
 30
0.0
210
0.0
220
0.0
230
1.0
  2
SOLID
 70
     1
 71
     0
 91
        1
 92
        1
 93
        4
 72
     1
 10
1004.628068168739
 20
1040.645174118969
 11
985.4845810339878
 21
1040.645174118969
 72
     2
 10
1012.312523011033
 20
1016.853341635637
 40
35.85791075395473
 50
138.4324157226478
 51
153.8705792243
 73
     1
 72
     1
 10
980.1192350388948
 20
1032.645174118968
 11
997.8093698993982
 21
1032.645174118968
 72
     2
 10
1039.028762809999
 20
1004.418264111643
 40
49.95795032304757
 50
214.4032199416405
 51
226.4811648208883
 73
     0
 97
        0
 75
     0
 76
     1
 98
        0
  0
HATCH
  5
1AF
330
1F
100
AcDbEntity
  8
0
  6
Continuous
 62
   150
100
AcDbHatch
 10
0.0
 20
0.0
 30
0.0
210
0.0
220
0.0
230
1.0
  2
SOLID
 70
     1
 71
     0
 91
        1
 92
        1
 93
        6
 72
     1
 10
1012.789269506899
 20
1046.930448149595
 11
1022.083513865743
 21
1052.545174118969
 72
     1
 10
1022.083513865743
 20
1052.545174118969
 11
1002.083513865743
 21
1052.545174118969
 72
     1
 10
1002.083513865743
 20
1052.545174118969
 11
998.801901543607
 21
1050.562726357201
 72
     1
 10
998.801901543607
 20
1050.562726357201
 11
995.5687433430221
 21
1044.245174118969
 72
     1
 10
995.568743343022
 20
1044.245174118969
 11
1008.868954459341
 21
1044.245174118969
 72
     2
 10
1039.028762809997
 20
1004.418264111645
 40
49.95795032304429
 50
232.8643685047815
 51
238.3161654234999
 73
     0
 97
        0
 75
     0
 76
     1
 98
        0
  0
HATCH
  5
1B0
330
1F
100
AcDbEntity
  8
0
  6
Continuous
 62
   150
100
AcDbHatch
 10
0.0
 20
0.0
 30
0.0
210
0.0
220
0.0
230
1.0
  2
SOLID
 70
     1
 71
     0
 91
        1
 92
        1
 93
        4
 72
     1
 10
1035.491715747236
 20
1060.645174118968
 11
1015.491715747236
 21
1060.645174118968
 72
     1
 10
1015.491715747236
 20
1060.645174118968
 11
1006.056314423222
 21
1054.945174118969
 72
     1
 10
1006.056314423222
 20
1054.945174118969
 11
1026.056314423222
 21
1054.945174118969
 72
     1
 10
1026.056314423222
 20
1054.945174118969
 11
1035.491715747236
 21
1060.645174118968
 97
        0
 75
     0
 76
     1
 98
        0
  0
HATCH
  5
1B1
330
1F
100
AcDbEntity
  8
0
  6
Continuous
 62
   150
100
AcDbHatch
 10
0.0
 20
0.0
 30
0.0
210
0.0
220
0.0
230
1.0
  2
SOLID
 70
     1
 71
     0
 91
        1
 92
        1
 93
        4
 72
     1
 10
994.8522824288459
 20
1048.176730448702
 11
992.7892695069032
 21
1046.930448149597
 72
     2
 10
1012.312523011033
 20
1016.853341635638
 40
35.85791075395472
 50
122.9878752072098
 51
130.1908330648956
 73
     1
 72
     1
 10
989.1721410599133
 20
1044.245174118969
 11
992.8402146042835
 21
1044.245174118968
 72
     1
 10
992.8402146042835
 20
1044.245174118968
 11
994.8522824288459
 21
1048.176730448702
 97
        0
 75
     0
 76
     1
 98
        0
  0
CIRCLE
  5
1B2
330
1F
100
AcDbEntity
  8
_Translation
  6
Continuous
 62
     7
100
AcDbCircle
 10
-115.2887493554
 20
1145.645174119
 30
0.0
 40
0.01
  0
CIRCLE
  5
1B3
330
1F
100
AcDbEntity
  8
_Translation
  6
Continuous
 62
     7
100
AcDbCircle
 10
-150.2887493554
 20
645.645174119
 30
0.0
 40
0.01
  0
LINE
  5
1B4
330
1F
100
AcDbEntity
  8
_Translation
  6
Continuous
 62
     7
100
AcDbLine
 10
13.9177033563
 20
1145.645174119
 30
0.0
 11
13.9177033563
 21
645.645174119
 31
0.0
  0
LINE
  5
1B5
330
1F
100
AcDbEntity
  8
Provvisorio
  6
Continuous
 62
     7
100
AcDbLine
 10
996.9917157472
 20
1091.145174119
 30
0.0
 11
996.9917157472
 21
1145.645174119
 31
0.0
  0
LINE
  5
1B6
330
1F
100
AcDbEntity
  8
Provvisorio
  6
Continuous
 62
     7
100
AcDbLine
 10
996.9917157472
 20
1077.045174119
 30
0.0
 11
996.9917157472
 21
1086.145174119
 31
0.0
  0
LINE
  5
1B7
330
1F
100
AcDbEntity
  8
Provvisorio
  6
Continuous
 62
     7
100
AcDbLine
 10
952.9917157472
 20
1074.645174119
 30
0.0
 11
952.9917157472
 21
1066.545174119
 31
0.0
  0
LINE
  5
1B8
330
1F
100
AcDbEntity
  8
Provvisorio
  6
Continuous
 62
     7
100
AcDbLine
 10
952.9917157472
 20
1086.145174119
 30
0.0
 11
952.9917157472
 21
1077.045174119
 31
0.0
  0
LINE
  5
1B9
330
1F
100
AcDbEntity
  8
Provvisorio
  6
Continuous
 62
     7
100
AcDbLine
 10
962.9917157472
 20
1086.145174119
 30
0.0
 11
962.9917157472
 21
1077.045174119
 31
0.0
  0
LINE
  5
1BA
330
1F
100
AcDbEntity
  8
Provvisorio
  6
Continuous
 62
     7
100
AcDbLine
 10
962.9917157472
 20
1074.645174119
 30
0.0
 11
962.9917157472
 21
1066.545174119
 31
0.0
  0
LINE
  5
1BB
330
1F
100
AcDbEntity
  8
Provvisorio
  6
Continuous
 62
     7
100
AcDbLine
 10
962.9917157472
 20
1064.145174119
 30
0.0
 11
962.9917157472
 21
1054.945174119
 31
0.0
  0
LINE
  5
1BC
330
1F
100
AcDbEntity
  8
Provvisorio
  6
Continuous
 62
     7
100
AcDbLine
 10
952.9917157472
 20
1064.145174119
 30
0.0
 11
952.9917157472
 21
1054.945174119
 31
0.0
  0
LINE
  5
1BD
330
1F
100
AcDbEntity
  8
Provvisorio
  6
Continuous
 62
     7
100
AcDbLine
 10
996.9917157472
 20
1066.545174119
 30
0.0
 11
996.9917157472
 21
1074.645174119
 31
0.0
  0
LINE
  5
1BE
330
1F
100
AcDbEntity
  8
Provvisorio
  6
Continuous
 62
     7
100
AcDbLine
 10
962.9917157472
 20
1052.545174119
 30
0.0
 11
962.9917157472
 21
1044.245174119
 31
0.0
  0
LINE
  5
1BF
330
1F
100
AcDbEntity
  8
Provvisorio
  6
Continuous
 62
     7
100
AcDbLine
 10
952.9917157472
 20
1052.545174119
 30
0.0
 11
952.9917157472
 21
1044.245174119
 31
0.0
  0
LINE
  5
1C0
330
1F
100
AcDbEntity
  8
Provvisorio
  6
Continuous
 62
     7
100
AcDbLine
 10
952.9917157472
 20
1040.645174119
 30
0.0
 11
952.9917157472
 21
1032.645174119
 31
0.0
  0
LINE
  5
1C1
330
1F
100
AcDbEntity
  8
Provvisorio
  6
Continuous
 62
     7
100
AcDbLine
 10
962.9917157472
 20
1040.645174119
 30
0.0
 11
962.9917157472
 21
1032.645174119
 31
0.0
  0
INSERT
  5
1C3
330
1F
100
AcDbEntity
  8
0
100
AcDbBlockReference
  2
SEANNOT_GROUP
 10
0.0
 20
0.0
 30
0.0
  0
LINE
  5
1CC
330
1F
100
AcDbEntity
  8
Provvisorio
  6
Continuous
 62
     7
100
AcDbLine
 10
1963.2730245574
 20
1116.3008798165
 30
0.0
 11
2082.2730245574
 21
1116.3008798165
 31
0.0
  0
LINE
  5
1CD
330
1F
100
AcDbEntity
  8
Provvisorio
  6
Continuous
 62
     7
100
AcDbLine
 10
1963.2730245574
 20
1031.3008798165
 30
0.0
 11
2082.2730245574
 21
1031.3008798165
 31
0.0
  0
LINE
  5
1CE
330
1F
100
AcDbEntity
  8
0
  6
Continuous
 62
     7
100
AcDbLine
 10
1921.7730245574
 20
591.3008798165
 30
0.0
 11
2123.7730245574
 21
591.3008798165
 31
0.0
  0
LINE
  5
1CF
330
1F
100
AcDbEntity
  8
0
  6
Continuous
 62
     7
100
AcDbLine
 10
1921.7730245574
 20
791.3008798165
 30
0.0
 11
1921.7730245574
 21
591.3008798165
 31
0.0
  0
ARC
  5
1D0
330
1F
100
AcDbEntity
  8
0
  6
Continuous
 62
     7
100
AcDbCircle
 10
1963.2730245574
 20
1034.3008798165
 30
0.0
 40
3.0
100
AcDbArc
 50
180.0
 51
270.0
  0
LINE
  5
1D1
330
1F
100
AcDbEntity
  8
0
  6
Continuous
 62
     7
100
AcDbLine
 10
1950.6730245574
 20
1051.8008798165
 30
0.0
 11
1950.6730245574
 21
1018.5008798165
 31
0.0
  0
LINE
  5
1D2
330
1F
100
AcDbEntity
  8
0
  6
Continuous
 62
     7
100
AcDbLine
 10
1954.2730245574
 20
1051.8008798165
 30
0.0
 11
1954.2730245574
 21
1018.5008798165
 31
0.0
  0
LINE
  5
1D3
330
1F
100
AcDbEntity
  8
0
  6
Continuous
 62
     7
100
AcDbLine
 10
1885.8149592207
 20
1011.7094829555
 30
0.0
 11
1949.4730245574
 21
1052.4295473371
 31
0.0
  0
LINE
  5
1D4
330
1F
100
AcDbEntity
  8
0
  6
Continuous
 62
     7
100
AcDbLine
 10
1890.7730245574
 20
998.3008798165
 30
0.0
 11
1890.7730245574
 21
825.3008798165
 31
0.0
  0
LINE
  5
1D5
330
1F
100
AcDbEntity
  8
0
  6
Continuous
 62
     7
100
AcDbLine
 10
2129.7730245574
 20
800.3008798165
 30
0.0
 11
1915.7730245574
 21
800.3008798165
 31
0.0
  0
LINE
  5
1D6
330
1F
100
AcDbEntity
  8
0
  6
Continuous
 62
     7
100
AcDbLine
 10
1922.5396912241
 20
795.3008798165
 30
0.0
 11
1915.7730245574
 21
795.3008798165
 31
0.0
  0
LINE
  5
1D7
330
1F
100
AcDbEntity
  8
0
  6
Continuous
 62
     7
100
AcDbLine
 10
1915.7730245574
 20
800.3008798165
 30
0.0
 11
1915.7730245574
 21
795.3008798165
 31
0.0
  0
ARC
  5
1D8
330
1F
100
AcDbEntity
  8
0
  6
Continuous
 62
     7
100
AcDbCircle
 10
1915.7730245574
 20
825.3008798165
 30
0.0
 40
25.0
100
AcDbArc
 50
180.0
 51
270.0
  0
LINE
  5
1D9
330
1F
100
AcDbEntity
  8
0
  6
Continuous
 62
     7
100
AcDbLine
 10
1885.2730245574
 20
998.3008798165
 30
0.0
 11
2154.7730245574
 21
998.3008798165
 31
0.0
  0
LINE
  5
1DA
330
1F
100
AcDbEntity
  8
0
  6
Continuous
 62
     7
100
AcDbLine
 10
2160.2730245574
 20
1003.3008798165
 30
0.0
 11
1890.7730245574
 21
1003.3008798165
 31
0.0
  0
LINE
  5
1DB
330
1F
100
AcDbEntity
  8
0
  6
Continuous
 62
     7
100
AcDbLine
 10
1947.0730245574
 20
1011.3008798165
 30
0.0
 11
1884.6730245574
 21
1011.3008798165
 31
0.0
  0
LINE
  5
1DC
330
1F
100
AcDbEntity
  8
0
  6
Continuous
 62
     7
100
AcDbLine
 10
1947.0730245574
 20
1014.9008798165
 30
0.0
 11
1884.6730245574
 21
1014.9008798165
 31
0.0
  0
ARC
  5
1DD
330
1F
100
AcDbEntity
  8
0
  6
Continuous
 62
     7
100
AcDbCircle
 10
1885.2730245574
 20
1000.8008798165
 30
0.0
 40
2.5
100
AcDbArc
 50
180.0
 51
270.0
  0
ARC
  5
1DE
330
1F
100
AcDbEntity
  8
0
  6
Continuous
 62
     7
100
AcDbCircle
 10
1885.2730245574
 20
1000.8008798165
 30
0.0
 40
2.5
100
AcDbArc
 50
90.0
 51
180.0
  0
CIRCLE
  5
1DF
330
1F
100
AcDbEntity
  8
0
  6
Continuous
 62
     7
100
AcDbCircle
 10
1884.6730245574
 20
1013.1008798165
 30
0.0
 40
1.800000000000011
  0
POINT
  5
1E0
330
1F
100
AcDbEntity
  8
0
  6
Continuous
 62
     7
100
AcDbPoint
 10
1882.7730245574
 20
1000.8008798165
 30
0.0
  0
LINE
  5
1E1
330
1F
100
AcDbEntity
  8
0
  6
Continuous
 62
     7
100
AcDbLine
 10
1890.7730245574
 20
1003.3008798165
 30
0.0
 11
1885.2730245574
 21
1003.3008798165
 31
0.0
  0
ARC
  5
1E2
330
1F
100
AcDbEntity
  8
0
  6
Continuous
 62
     7
100
AcDbCircle
 10
1947.0730245574
 20
1018.5008798165
 30
0.0
 40
7.2
100
AcDbArc
 50
270.0
 51
0.0
  0
ARC
  5
1E3
330
1F
100
AcDbEntity
  8
0
  6
Continuous
 62
     7
100
AcDbCircle
 10
1947.0730245574
 20
1018.5008798165
 30
0.0
 40
3.6
100
AcDbArc
 50
270.0
 51
0.0
  0
LINE
  5
1E4
330
1F
100
AcDbEntity
  8
Provvisorio
  6
Continuous
 62
     7
100
AcDbLine
 10
1960.2730245574
 20
1113.3008798165
 30
0.0
 11
1960.2730245574
 21
1034.3008798165
 31
0.0
  0
LINE
  5
1E5
330
1F
100
AcDbEntity
  8
0
  6
Continuous
 62
     7
100
AcDbLine
 10
1959.6730245574
 20
1066.8008798165
 30
0.0
 11
1949.4730245574
 21
1066.8008798165
 31
0.0
  0
LINE
  5
1E6
330
1F
100
AcDbEntity
  8
0
  6
Continuous
 62
     7
100
AcDbLine
 10
1959.6730245574
 20
1051.8008798165
 30
0.0
 11
1949.4730245574
 21
1051.8008798165
 31
0.0
  0
LINE
  5
1E7
330
1F
100
AcDbEntity
  8
0
  6
Continuous
 62
     7
100
AcDbLine
 10
1949.4730245574
 20
1051.8008798165
 30
0.0
 11
1949.4730245574
 21
1066.8008798165
 31
0.0
  0
LINE
  5
1E8
330
1F
100
AcDbEntity
  8
0
  6
Continuous
 62
     7
100
AcDbLine
 10
1948.8730245574
 20
1066.2008798165
 30
0.0
 11
1948.8730245574
 21
1052.4008798165
 31
0.0
  0
LINE
  5
1E9
330
1F
100
AcDbEntity
  8
0
  6
Continuous
 62
     7
100
AcDbLine
 10
1949.4730245574
 20
1051.8008798165
 30
0.0
 11
1948.8730245574
 21
1052.4008798165
 31
0.0
  0
LINE
  5
1EA
330
1F
100
AcDbEntity
  8
0
  6
Continuous
 62
     7
100
AcDbLine
 10
1948.8730245574
 20
1066.2008798165
 30
0.0
 11
1949.4730245574
 21
1066.8008798165
 31
0.0
  0
LINE
  5
1EB
330
1F
100
AcDbEntity
  8
0
  6
Continuous
 62
     7
100
AcDbLine
 10
1959.6730245574
 20
1051.8008798165
 30
0.0
 11
1959.6730245574
 21
1066.8008798165
 31
0.0
  0
LINE
  5
1EC
330
1F
100
AcDbEntity
  8
0
  6
Continuous
 62
     7
100
AcDbLine
 10
1960.2730245574
 20
1066.2008798165
 30
0.0
 11
1960.2730245574
 21
1052.4008798165
 31
0.0
  0
LINE
  5
1ED
330
1F
100
AcDbEntity
  8
0
  6
Continuous
 62
     7
100
AcDbLine
 10
1960.2730245574
 20
1052.4008798165
 30
0.0
 11
1959.6730245574
 21
1051.8008798165
 31
0.0
  0
LINE
  5
1EE
330
1F
100
AcDbEntity
  8
0
  6
Continuous
 62
     7
100
AcDbLine
 10
1959.6730245574
 20
1066.8008798165
 30
0.0
 11
1960.2730245574
 21
1066.2008798165
 31
0.0
  0
ARC
  5
1EF
330
1F
100
AcDbEntity
  8
0
  6
Continuous
 62
     7
100
AcDbCircle
 10
1963.2730245574
 20
1113.3008798165
 30
0.0
 40
3.0
100
AcDbArc
 50
90.0
 51
180.0
  0
LINE
  5
1F0
330
1F
100
AcDbEntity
  8
0
  6
Continuous
 62
     7
100
AcDbLine
 10
2123.7730245574
 20
591.3008798165
 30
0.0
 11
2123.7730245574
 21
791.3008798165
 31
0.0
  0
ARC
  5
1F1
330
1F
100
AcDbEntity
  8
0
  6
Continuous
 62
     7
100
AcDbCircle
 10
2082.2730245574
 20
1034.3008798165
 30
0.0
 40
3.0
100
AcDbArc
 50
270.0
 51
0.0
  0
LINE
  5
1F2
330
1F
100
AcDbEntity
  8
0
  6
Continuous
 62
     7
100
AcDbLine
 10
2094.8730245574
 20
1051.8008798165
 30
0.0
 11
2094.8730245574
 21
1018.5008798165
 31
0.0
  0
LINE
  5
1F3
330
1F
100
AcDbEntity
  8
0
  6
Continuous
 62
     7
100
AcDbLine
 10
2091.2730245574
 20
1051.8008798165
 30
0.0
 11
2091.2730245574
 21
1018.5008798165
 31
0.0
  0
LINE
  5
1F4
330
1F
100
AcDbEntity
  8
0
  6
Continuous
 62
     7
100
AcDbLine
 10
2159.7310898942
 20
1011.7094829555
 30
0.0
 11
2096.0730245574
 21
1052.4295473371
 31
0.0
  0
LINE
  5
1F5
330
1F
100
AcDbEntity
  8
0
  6
Continuous
 62
     7
100
AcDbLine
 10
2154.7730245574
 20
998.3008798165
 30
0.0
 11
2154.7730245574
 21
825.3008798165
 31
0.0
  0
LINE
  5
1F6
330
1F
100
AcDbEntity
  8
0
  6
Continuous
 62
     7
100
AcDbLine
 10
2129.7730245574
 20
800.3008798165
 30
0.0
 11
2129.7730245574
 21
795.3008798165
 31
0.0
  0
ARC
  5
1F7
330
1F
100
AcDbEntity
  8
0
  6
Continuous
 62
     7
100
AcDbCircle
 10
2129.7730245574
 20
825.3008798165
 30
0.0
 40
25.0
100
AcDbArc
 50
270.0
 51
0.0
  0
LINE
  5
1F8
330
1F
100
AcDbEntity
  8
0
  6
Continuous
 62
     7
100
AcDbLine
 10
2129.7730245574
 20
795.3008798165
 30
0.0
 11
2123.0063578908
 21
795.3008798165
 31
0.0
  0
LINE
  5
1F9
330
1F
100
AcDbEntity
  8
0
  6
Continuous
 62
     7
100
AcDbLine
 10
2129.7730245574
 20
800.3008798165
 30
0.0
 11
2122.0480245574
 21
800.3008798165
 31
0.0
  0
LINE
  5
1FA
330
1F
100
AcDbEntity
  8
0
  6
Continuous
 62
     7
100
AcDbLine
 10
2082.7563578908
 20
998.3008798165
 30
0.0
 11
2154.7730245574
 21
998.3008798165
 31
0.0
  0
LINE
  5
1FB
330
1F
100
AcDbEntity
  8
0
  6
Continuous
 62
     7
100
AcDbLine
 10
2154.7730245574
 20
1003.3008798165
 30
0.0
 11
2081.7980245574
 21
1003.3008798165
 31
0.0
  0
LINE
  5
1FC
330
1F
100
AcDbEntity
  8
0
  6
Continuous
 62
     7
100
AcDbLine
 10
2098.4730245574
 20
1014.9008798165
 30
0.0
 11
2160.8730245574
 21
1014.9008798165
 31
0.0
  0
LINE
  5
1FD
330
1F
100
AcDbEntity
  8
0
  6
Continuous
 62
     7
100
AcDbLine
 10
2098.4730245574
 20
1011.3008798165
 30
0.0
 11
2160.8730245574
 21
1011.3008798165
 31
0.0
  0
ARC
  5
1FE
330
1F
100
AcDbEntity
  8
0
  6
Continuous
 62
     7
100
AcDbCircle
 10
2098.4730245574
 20
1018.5008798165
 30
0.0
 40
7.2
100
AcDbArc
 50
180.0
 51
270.0
  0
ARC
  5
1FF
330
1F
100
AcDbEntity
  8
0
  6
Continuous
 62
     7
100
AcDbCircle
 10
2098.4730245574
 20
1018.5008798165
 30
0.0
 40
3.6
100
AcDbArc
 50
180.0
 51
270.0
  0
ARC
  5
200
330
1F
100
AcDbEntity
  8
0
  6
Continuous
 62
     7
100
AcDbCircle
 10
2160.2730245574
 20
1000.8008798165
 30
0.0
 40
2.5
100
AcDbArc
 50
270.0
 51
0.0
  0
LINE
  5
201
330
1F
100
AcDbEntity
  8
0
  6
Continuous
 62
     7
100
AcDbLine
 10
2154.7730245574
 20
998.3008798165
 30
0.0
 11
2160.2730245574
 21
998.3008798165
 31
0.0
  0
ARC
  5
202
330
1F
100
AcDbEntity
  8
0
  6
Continuous
 62
     7
100
AcDbCircle
 10
2160.2730245574
 20
1000.8008798165
 30
0.0
 40
2.5
100
AcDbArc
 50
0.0
 51
90.0
  0
LINE
  5
203
330
1F
100
AcDbEntity
  8
0
  6
Continuous
 62
     7
100
AcDbLine
 10
2154.7730245574
 20
1003.3008798165
 30
0.0
 11
2160.2730245574
 21
1003.3008798165
 31
0.0
  0
POINT
  5
204
330
1F
100
AcDbEntity
  8
0
  6
Continuous
 62
     7
100
AcDbPoint
 10
2162.7730245574
 20
1000.8008798165
 30
0.0
  0
CIRCLE
  5
205
330
1F
100
AcDbEntity
  8
0
  6
Continuous
 62
     7
100
AcDbCircle
 10
2160.8730245574
 20
1013.1008798165
 30
0.0
 40
1.800000000000011
  0
LINE
  5
206
330
1F
100
AcDbEntity
  8
Provvisorio
  6
Continuous
 62
     7
100
AcDbLine
 10
2085.2730245574
 20
1113.3008798165
 30
0.0
 11
2085.2730245574
 21
1034.3008798165
 31
0.0
  0
LINE
  5
207
330
1F
100
AcDbEntity
  8
0
  6
Continuous
 62
     7
100
AcDbLine
 10
2085.8730245574
 20
1051.8008798165
 30
0.0
 11
2085.8730245574
 21
1066.8008798165
 31
0.0
  0
LINE
  5
208
330
1F
100
AcDbEntity
  8
0
  6
Continuous
 62
     7
100
AcDbLine
 10
2085.2730245574
 20
1066.2008798165
 30
0.0
 11
2085.2730245574
 21
1052.4008798165
 31
0.0
  0
LINE
  5
209
330
1F
100
AcDbEntity
  8
0
  6
Continuous
 62
     7
100
AcDbLine
 10
2096.0730245574
 20
1051.8008798165
 30
0.0
 11
2096.0730245574
 21
1066.8008798165
 31
0.0
  0
LINE
  5
20A
330
1F
100
AcDbEntity
  8
0
  6
Continuous
 62
     7
100
AcDbLine
 10
2096.6730245574
 20
1066.2008798165
 30
0.0
 11
2096.6730245574
 21
1052.4008798165
 31
0.0
  0
LINE
  5
20B
330
1F
100
AcDbEntity
  8
0
  6
Continuous
 62
     7
100
AcDbLine
 10
2085.8730245574
 20
1051.8008798165
 30
0.0
 11
2096.0730245574
 21
1051.8008798165
 31
0.0
  0
LINE
  5
20C
330
1F
100
AcDbEntity
  8
0
  6
Continuous
 62
     7
100
AcDbLine
 10
2085.2730245574
 20
1052.4008798165
 30
0.0
 11
2085.8730245574
 21
1051.8008798165
 31
0.0
  0
LINE
  5
20D
330
1F
100
AcDbEntity
  8
0
  6
Continuous
 62
     7
100
AcDbLine
 10
2096.0730245574
 20
1051.8008798165
 30
0.0
 11
2096.6730245574
 21
1052.4008798165
 31
0.0
  0
LINE
  5
20E
330
1F
100
AcDbEntity
  8
0
  6
Continuous
 62
     7
100
AcDbLine
 10
2085.8730245574
 20
1066.8008798165
 30
0.0
 11
2096.0730245574
 21
1066.8008798165
 31
0.0
  0
LINE
  5
20F
330
1F
100
AcDbEntity
  8
0
  6
Continuous
 62
     7
100
AcDbLine
 10
2085.8730245574
 20
1066.8008798165
 30
0.0
 11
2085.2730245574
 21
1066.2008798165
 31
0.0
  0
LINE
  5
210
330
1F
100
AcDbEntity
  8
0
  6
Continuous
 62
     7
100
AcDbLine
 10
2096.6730245574
 20
1066.2008798165
 30
0.0
 11
2096.0730245574
 21
1066.8008798165
 31
0.0
  0
ARC
  5
211
330
1F
100
AcDbEntity
  8
0
  6
Continuous
 62
     7
100
AcDbCircle
 10
2082.2730245574
 20
1113.3008798165
 30
0.0
 40
3.0
100
AcDbArc
 50
0.0
 51
90.0
  0
LINE
  5
212
330
1F
100
AcDbEntity
  8
0
  6
Continuous
 62
     7
100
AcDbLine
 10
1962.7730245574
 20
566.3008798165
 30
0.0
 11
1922.7730245574
 21
566.3008798165
 31
0.0
  0
LINE
  5
213
330
1F
100
AcDbEntity
  8
0
  6
Continuous
 62
     7
100
AcDbLine
 10
1922.7730245574
 20
571.3008798165
 30
0.0
 11
1962.7730245574
 21
571.3008798165
 31
0.0
  0
LINE
  5
214
330
1F
100
AcDbEntity
  8
0
  6
Continuous
 62
     7
100
AcDbLine
 10
1922.7730245574
 20
566.3008798165
 30
0.0
 11
1922.7730245574
 21
571.3008798165
 31
0.0
  0
LINE
  5
215
330
1F
100
AcDbEntity
  8
0
  6
Continuous
 62
     7
100
AcDbLine
 10
1962.7730245574
 20
571.3008798165
 30
0.0
 11
1962.7730245574
 21
566.3008798165
 31
0.0
  0
LINE
  5
216
330
1F
100
AcDbEntity
  8
0
  6
Continuous
 62
     7
100
AcDbLine
 10
2082.7730245574
 20
571.3008798165
 30
0.0
 11
2122.7730245574
 21
571.3008798165
 31
0.0
  0
LINE
  5
217
330
1F
100
AcDbEntity
  8
0
  6
Continuous
 62
     7
100
AcDbLine
 10
2122.7730245574
 20
566.3008798165
 30
0.0
 11
2082.7730245574
 21
566.3008798165
 31
0.0
  0
LINE
  5
218
330
1F
100
AcDbEntity
  8
0
  6
Continuous
 62
     7
100
AcDbLine
 10
2082.7730245574
 20
566.3008798165
 30
0.0
 11
2082.7730245574
 21
571.3008798165
 31
0.0
  0
LINE
  5
219
330
1F
100
AcDbEntity
  8
0
  6
Continuous
 62
     7
100
AcDbLine
 10
2122.7730245574
 20
571.3008798165
 30
0.0
 11
2122.7730245574
 21
566.3008798165
 31
0.0
  0
LINE
  5
21A
330
1F
100
AcDbEntity
  8
0
  6
Continuous
 62
     7
100
AcDbLine
 10
1940.2730245574
 20
571.3008798165
 30
0.0
 11
1940.2730245574
 21
591.3008798165
 31
0.0
  0
LINE
  5
21B
330
1F
100
AcDbEntity
  8
0
  6
Continuous
 62
     7
100
AcDbLine
 10
1945.2730245574
 20
571.3008798165
 30
0.0
 11
1945.2730245574
 21
591.3008798165
 31
0.0
  0
LINE
  5
21C
330
1F
100
AcDbEntity
  8
0
  6
Continuous
 62
     7
100
AcDbLine
 10
2105.2730245574
 20
571.3008798165
 30
0.0
 11
2105.2730245574
 21
591.3008798165
 31
0.0
  0
LINE
  5
21D
330
1F
100
AcDbEntity
  8
0
  6
Continuous
 62
     7
100
AcDbLine
 10
2100.2730245574
 20
571.3008798165
 30
0.0
 11
2100.2730245574
 21
591.3008798165
 31
0.0
  0
LINE
  5
21E
330
1F
100
AcDbEntity
  8
0
  6
Continuous
 62
     7
100
AcDbLine
 10
2123.7730245574
 20
791.3008798165
 30
0.0
 11
1921.7730245574
 21
791.3008798165
 31
0.0
  0
TEXT
  5
21F
330
1F
100
AcDbEntity
  8
0
  6
Continuous
 62
     7
100
AcDbText
 10
517.242800164
 20
2105.6532021394
 30
0.0
 40
200.0
  1
iM8
  7
SEACAD_arial_ttf
 11
517.242800164
 21
2305.6532021394
 31
0.0
100
AcDbText
 73
     3
  0
INSERT
  5
221
330
1F
100
AcDbEntity
  8
Provvisorio
100
AcDbBlockReference
  2
SE
 10
0.0
 20
0.0
 30
0.0
  0
INSERT
  5
229
330
1F
100
AcDbEntity
  8
0
100
AcDbBlockReference
  2
SE1
 10
0.0
 20
0.0
 30
0.0
  0
INSERT
  5
233
330
1F
100
AcDbEntity
  8
0
100
AcDbBlockReference
  2
SE2
 10
0.0
 20
0.0
 30
0.0
  0
INSERT
  5
238
330
1F
100
AcDbEntity
  8
0
100
AcDbBlockReference
  2
GDimGGroup
 10
0.0
 20
0.0
 30
0.0
  0
INSERT
  5
242
330
1F
100
AcDbEntity
  8
Provvisorio
100
AcDbBlockReference
  2
GDimGGroup1
 10
0.0
 20
0.0
 30
0.0
  0
INSERT
  5
24C
330
1F
100
AcDbEntity
  8
0
100
AcDbBlockReference
  2
GDimGGroup2
 10
0.0
 20
0.0
 30
0.0
  0
INSERT
  5
256
330
1F
100
AcDbEntity
  8
0
100
AcDbBlockReference
  2
GDimGGroup3
 10
0.0
 20
0.0
 30
0.0
  0
INSERT
  5
260
330
1F
100
AcDbEntity
  8
0
100
AcDbBlockReference
  2
GDimGGroup4
 10
0.0
 20
0.0
 30
0.0
  0
INSERT
  5
26A
330
1F
100
AcDbEntity
  8
0
100
AcDbBlockReference
  2
GDimGGroup5
 10
0.0
 20
0.0
 30
0.0
  0
INSERT
  5
274
330
1F
100
AcDbEntity
  8
0
100
AcDbBlockReference
  2
GDimGGroup6
 10
0.0
 20
0.0
 30
0.0
  0
INSERT
  5
27F
330
1F
100
AcDbEntity
  8
0
100
AcDbBlockReference
  2
SE3
 10
0.0
 20
0.0
 30
0.0
  0
INSERT
  5
290
330
1F
100
AcDbEntity
  8
0
100
AcDbBlockReference
  2
GDimGGroup7
 10
0.0
 20
0.0
 30
0.0
  0
INSERT
  5
29B
330
1F
100
AcDbEntity
  8
Provvisorio
100
AcDbBlockReference
  2
GDimGGroup8
 10
0.0
 20
0.0
 30
0.0
  0
INSERT
  5
2A9
330
1F
100
AcDbEntity
  8
Provvisorio
100
AcDbBlockReference
  2
GDimGGroup9
 10
0.0
 20
0.0
 30
0.0
  0
INSERT
  5
2B5
330
1F
100
AcDbEntity
  8
0
100
AcDbBlockReference
  2
GDimGGroup10
 10
0.0
 20
0.0
 30
0.0
  0
INSERT
  5
2BF
330
1F
100
AcDbEntity
  8
0
100
AcDbBlockReference
  2
GDimGGroup11
 10
0.0
 20
0.0
 30
0.0
  0
INSERT
  5
2CA
330
1F
100
AcDbEntity
  8
0
100
AcDbBlockReference
  2
GDimGGroup12
 10
0.0
 20
0.0
 30
0.0
  0
INSERT
  5
2D6
330
1F
100
AcDbEntity
  8
Provvisorio
100
AcDbBlockReference
  2
SE4
 10
0.0
 20
0.0
 30
0.0
  0
INSERT
  5
2DE
330
1F
100
AcDbEntity
  8
Provvisorio
100
AcDbBlockReference
  2
SE5
 10
0.0
 20
0.0
 30
0.0
  0
INSERT
  5
2E7
330
1F
100
AcDbEntity
  8
Provvisorio
100
AcDbBlockReference
  2
SE6
 10
0.0
 20
0.0
 30
0.0
  0
INSERT
  5
2EF
330
1F
100
AcDbEntity
  8
Provvisorio
100
AcDbBlockReference
  2
SE7
 10
0.0
 20
0.0
 30
0.0
  0
LWPOLYLINE
  5
2F8
330
1F
100
AcDbEntity
  8
0
  6
Continuous
 62
     7
100
AcDbPolyline
 90
        5
 70
     1
 43
0.0
 10
1004.6280681687
 20
1040.645174119
 10
985.484581034
 20
1040.645174119
 42
0.0674637679
 10
980.1192350389
 20
1032.645174119
 10
997.8093698994
 20
1032.645174119
 42
-0.0527488182
 10
1004.6280681687
 20
1040.645174119
 42
-0.0527488182
  0
LWPOLYLINE
  5
2F9
330
1F
100
AcDbEntity
  8
0
  6
Continuous
 62
     7
100
AcDbPolyline
 90
        7
 70
     1
 43
0.0
 10
1012.7892695069
 20
1046.9304481496
 10
1022.0835138657
 20
1052.545174119
 10
1002.0835138657
 20
1052.545174119
 10
998.8019015436
 20
1050.5627263572
 10
995.568743343
 20
1044.245174119
 10
1008.8689544593
 20
1044.245174119
 42
-0.0237924395
 10
1012.7892695069
 20
1046.9304481496
 42
-0.0237924395
  0
LWPOLYLINE
  5
2FA
330
1F
100
AcDbEntity
  8
0
  6
Continuous
 62
     7
100
AcDbPolyline
 90
        5
 70
     1
 43
0.0
 10
1035.4917157472
 20
1060.645174119
 10
1015.4917157472
 20
1060.645174119
 10
1006.0563144232
 20
1054.945174119
 10
1026.0563144232
 20
1054.945174119
 10
1035.4917157472
 20
1060.645174119
  0
LWPOLYLINE
  5
2FB
330
1F
100
AcDbEntity
  8
0
  6
Continuous
 62
     7
100
AcDbPolyline
 90
        5
 70
     1
 43
0.0
 10
994.8522824288
 20
1048.1767304487
 10
992.7892695069
 20
1046.9304481496
 42
0.0314391849
 10
989.1721410599
 20
1044.245174119
 10
992.8402146043
 20
1044.245174119
 10
994.8522824288
 20
1048.1767304487
  0
INSERT
  5
2FD
330
1F
100
AcDbEntity
  8
0
100
AcDbBlockReference
  2
GDimGGroup13
 10
0.0
 20
0.0
 30
0.0
  0
ENDSEC
  0
SECTION
  2
OBJECTS
  0
DICTIONARY
  5
C
330
0
100
AcDbDictionary
281
     1
  3
ACAD_GROUP
350
D
  3
ACAD_LAYOUT
350
1A
  3
ACAD_MATERIAL
350
3B
  3
ACAD_MLEADERSTYLE
350
308
  3
ACAD_MLINESTYLE
350
17
  3
ACAD_PLOTSETTINGS
350
19
  3
ACAD_PLOTSTYLENAME
350
E
  3
ACAD_VISUALSTYLE
350
2A
  3
AcDbVariableDictionary
350
306
  0
DICTIONARY
  5
D
102
{ACAD_REACTORS
330
C
102
}
330
C
100
AcDbDictionary
281
     1
  0
DICTIONARY
  5
1A
102
{ACAD_REACTORS
330
C
102
}
330
C
100
AcDbDictionary
281
     1
  3
Layout1
350
1E
  3
Model
350
22
  0
DICTIONARY
  5
3B
102
{ACAD_REACTORS
330
C
102
}
330
C
100
AcDbDictionary
281
     1
  3
ByBlock
350
3D
  3
ByLayer
350
3C
  3
Global
350
3E
  0
DICTIONARY
  5
308
102
{ACAD_REACTORS
330
C
102
}
330
C
100
AcDbDictionary
281
     1
  0
DICTIONARY
  5
17
102
{ACAD_REACTORS
330
C
102
}
330
C
100
AcDbDictionary
281
     1
  3
Standard
350
18
  0
DICTIONARY
  5
19
102
{ACAD_REACTORS
330
C
102
}
330
C
100
AcDbDictionary
281
     1
  0
ACDBDICTIONARYWDFLT
  5
E
102
{ACAD_REACTORS
330
C
102
}
330
C
100
AcDbDictionary
281
     1
  3
Normal
350
F
100
AcDbDictionaryWithDefault
340
F
  0
DICTIONARY
  5
2A
102
{ACAD_REACTORS
330
C
102
}
330
C
100
AcDbDictionary
281
     1
  3
2dWireframe
350
2F
  3
3D Hidden
350
31
  3
3dWireframe
350
30
  3
Basic
350
32
  3
Brighten
350
36
  3
ColorChange
350
3A
  3
Conceptual
350
34
  3
Dim
350
35
  3
Facepattern
350
39
  3
Flat
350
2B
  3
FlatWithEdges
350
2C
  3
Gouraud
350
2D
  3
GouraudWithEdges
350
2E
  3
Linepattern
350
38
  3
Realistic
350
33
  3
Thicken
350
37
  0
DICTIONARY
  5
306
102
{ACAD_REACTORS
330
C
102
}
330
C
100
AcDbDictionary
281
     1
  3
DIMASSOC
350
30B
  3
HIDETEXT
350
30C
  3
PSOLHEIGHT
350
30A
  3
PSOLWIDTH
350
309
  0
LAYOUT
  5
1E
102
{ACAD_REACTORS
330
1A
102
}
330
1A
100
AcDbPlotSettings
  1

  2
none_device
  4

  6

 40
0.0
 41
0.0
 42
0.0
 43
0.0
 44
0.0
 45
0.0
 46
0.0
 47
0.0
 48
0.0
 49
0.0
140
0.0
141
0.0
142
1.0
143
1.0
 70
   688
 72
     0
 73
     0
 74
     5
  7

 75
    16
147
1.0
148
0.0
149
0.0
100
AcDbLayout
  1
Layout1
 70
     1
 71
     1
 10
0.0
 20
0.0
 11
594.0
 21
420.0
 12
0.0
 22
0.0
 32
0.0
 14
0.0
 24
0.0
 34
0.0
 15
594.0
 25
420.0
 35
0.0
146
0.0
 13
0.0
 23
0.0
 33
0.0
 16
1.0
 26
0.0
 36
0.0
 17
0.0
 27
1.0
 37
0.0
 76
     0
330
1B
  0
LAYOUT
  5
22
102
{ACAD_REACTORS
330
1A
102
}
330
1A
100
AcDbPlotSettings
  1

  2
none_device
  4

  6

 40
0.0
 41
0.0
 42
0.0
 43
0.0
 44
0.0
 45
0.0
 46
0.0
 47
0.0
 48
0.0
 49
0.0
140
0.0
141
0.0
142
1.0
143
1.0
 70
  1712
 72
     0
 73
     0
 74
     0
  7

 75
     0
147
1.0
148
0.0
149
0.0
100
AcDbLayout
  1
Model
 70
     1
 71
     0
 10
0.0
 20
0.0
 11
594.0
 21
420.0
 12
0.0
 22
0.0
 32
0.0
 14
0.0
 24
0.0
 34
0.0
 15
594.0
 25
420.0
 35
0.0
146
0.0
 13
0.0
 23
0.0
 33
0.0
 16
1.0
 26
0.0
 36
0.0
 17
0.0
 27
1.0
 37
0.0
 76
     0
330
1F
331
29
  0
MATERIAL
  5
3D
102
{ACAD_REACTORS
330
3B
102
}
102
{ACAD_XDICTIONARY
360
32F
102
}
330
3B
100
AcDbMaterial
  1
ByBlock
  0
MATERIAL
  5
3C
102
{ACAD_REACTORS
330
3B
102
}
102
{ACAD_XDICTIONARY
360
32D
102
}
330
3B
100
AcDbMaterial
  1
ByLayer
  0
MATERIAL
  5
3E
102
{ACAD_REACTORS
330
3B
102
}
102
{ACAD_XDICTIONARY
360
331
102
}
330
3B
100
AcDbMaterial
  1
Global
  0
MLINESTYLE
  5
18
102
{ACAD_REACTORS
330
17
102
}
330
17
100
AcDbMlineStyle
  2
Standard
 70
     0
  3

 62
   256
 51
90.0
 52
90.0
 71
     2
 49
0.5
 62
   256
  6
BYLAYER
 49
-0.5
 62
   256
  6
BYLAYER
  0
ACDBPLACEHOLDER
  5
F
102
{ACAD_REACTORS
330
E
102
}
330
E
  0
VISUALSTYLE
  5
2F
102
{ACAD_REACTORS
330
2A
102
}
102
{ACAD_XDICTIONARY
360
315
102
}
330
2A
100
AcDbVisualStyle
  2
2dWireframe
 70
     4
 71
     0
 72
     2
 73
     0
 90
        0
 40
-0.6
 41
-30.0
 62
     5
 63
     7
 74
     1
 91
        4
 64
     7
 65
   257
 75
     1
175
     1
 42
1.0
 92
        0
 66
   257
 43
1.0
 76
     1
 77
     6
 78
     2
 67
     7
 79
     5
170
     0
171
     0
290
     0
174
     0
 93
        1
 44
0.0
173
     0
291
     0
 45
0.0
1001
ACAD
1000
AcDbSavedByObjectVersion
1070
     0
  0
VISUALSTYLE
  5
31
102
{ACAD_REACTORS
330
2A
102
}
102
{ACAD_XDICTIONARY
360
319
102
}
330
2A
100
AcDbVisualStyle
  2
3D Hidden
 70
     6
 71
     1
 72
     2
 73
     2
 90
        0
 40
-0.6
 41
-30.0
 62
     5
 63
     7
 74
     2
 91
        2
 64
     7
 65
   257
 75
     2
175
     1
 42
40.0
 92
        0
 66
   257
 43
1.0
 76
     1
 77
     6
 78
     2
 67
     7
 79
     3
170
     0
171
     0
290
     0
174
     0
 93
        1
 44
0.0
173
     0
291
     0
 45
0.0
1001
ACAD
1000
AcDbSavedByObjectVersion
1070
     0
  0
VISUALSTYLE
  5
30
102
{ACAD_REACTORS
330
2A
102
}
102
{ACAD_XDICTIONARY
360
317
102
}
330
2A
100
AcDbVisualStyle
  2
3dWireframe
 70
     5
 71
     0
 72
     2
 73
     0
 90
        0
 40
-0.6
 41
-30.0
 62
     5
 63
     7
 74
     1
 91
        4
 64
     7
 65
   257
 75
     1
175
     1
 42
1.0
 92
        0
 66
   257
 43
1.0
 76
     1
 77
     6
 78
     2
 67
     7
 79
     5
170
     0
171
     0
290
     0
174
     0
 93
        1
 44
0.0
173
     0
291
     0
 45
0.0
1001
ACAD
1000
AcDbSavedByObjectVersion
1070
     0
  0
VISUALSTYLE
  5
32
102
{ACAD_REACTORS
330
2A
102
}
102
{ACAD_XDICTIONARY
360
31B
102
}
330
2A
100
AcDbVisualStyle
  2
Basic
 70
     7
 71
     1
 72
     0
 73
     1
 90
        0
 40
-0.6
 41
-30.0
 62
     5
 63
     7
 74
     0
 91
        4
 64
     7
 65
   257
 75
     1
175
     1
 42
1.0
 92
        8
 66
     7
 43
1.0
 76
     1
 77
     6
 78
     2
 67
     7
 79
     5
170
     0
171
     0
290
     0
174
     0
 93
        1
 44
0.0
173
     0
291
     1
 45
0.0
1001
ACAD
1000
AcDbSavedByObjectVersion
1070
     0
  0
VISUALSTYLE
  5
36
102
{ACAD_REACTORS
330
2A
102
}
102
{ACAD_XDICTIONARY
360
323
102
}
330
2A
100
AcDbVisualStyle
  2
Brighten
 70
    12
 71
     2
 72
     2
 73
     0
 90
        0
 40
-0.6
 41
-30.0
 62
     5
 63
     7
 74
     1
 91
        4
 64
     7
 65
   257
 75
     1
175
     1
 42
1.0
 92
        8
 66
     7
 43
1.0
 76
     1
 77
     6
 78
     2
 67
     7
 79
     5
170
     0
171
     0
290
     0
174
     0
 93
        1
 44
50.0
173
     0
291
     1
 45
0.0
1001
ACAD
1000
AcDbSavedByObjectVersion
1070
     0
  0
VISUALSTYLE
  5
3A
102
{ACAD_REACTORS
330
2A
102
}
102
{ACAD_XDICTIONARY
360
32B
102
}
330
2A
100
AcDbVisualStyle
  2
ColorChange
 70
    16
 71
     2
 72
     2
 73
     3
 90
        0
 40
-0.6
 41
-30.0
 62
     5
 63
     8
 74
     1
 91
        4
 64
     7
 65
   257
 75
     1
175
     1
 42
1.0
 92
        8
 66
     8
 43
1.0
 76
     1
 77
     6
 78
     2
 67
     7
 79
     5
170
     0
171
     0
290
     0
174
     0
 93
        1
 44
0.0
173
     0
291
     1
 45
0.0
1001
ACAD
1000
AcDbSavedByObjectVersion
1070
     0
  0
VISUALSTYLE
  5
34
102
{ACAD_REACTORS
330
2A
102
}
102
{ACAD_XDICTIONARY
360
31F
102
}
330
2A
100
AcDbVisualStyle
  2
Conceptual
 70
     9
 71
     3
 72
     2
 73
     0
 90
        0
 40
-0.6
 41
-30.0
 62
     5
 63
     7
 74
     2
 91
        2
 64
     7
 65
   257
 75
     1
175
     1
 42
40.0
 92
        8
 66
     7
 43
1.0
 76
     1
 77
     6
 78
     2
 67
     7
 79
     3
170
     0
171
     0
290
     0
174
     0
 93
        1
 44
0.0
173
     0
291
     0
 45
0.0
1001
ACAD
1000
AcDbSavedByObjectVersion
1070
     0
  0
VISUALSTYLE
  5
35
102
{ACAD_REACTORS
330
2A
102
}
102
{ACAD_XDICTIONARY
360
321
102
}
330
2A
100
AcDbVisualStyle
  2
Dim
 70
    11
 71
     2
 72
     2
 73
     0
 90
        0
 40
-0.6
 41
-30.0
 62
     5
 63
     7
 74
     1
 91
        4
 64
     7
 65
   257
 75
     1
175
     1
 42
1.0
 92
        8
 66
     7
 43
1.0
 76
     1
 77
     6
 78
     2
 67
     7
 79
     5
170
     0
171
     0
290
     0
174
     0
 93
        1
 44
-50.0
173
     0
291
     1
 45
0.0
1001
ACAD
1000
AcDbSavedByObjectVersion
1070
     0
  0
VISUALSTYLE
  5
39
102
{ACAD_REACTORS
330
2A
102
}
102
{ACAD_XDICTIONARY
360
329
102
}
330
2A
100
AcDbVisualStyle
  2
Facepattern
 70
    15
 71
     2
 72
     2
 73
     0
 90
        0
 40
-0.6
 41
-30.0
 62
     5
 63
     7
 74
     1
 91
        4
 64
     7
 65
   257
 75
     1
175
     1
 42
1.0
 92
        8
 66
     7
 43
1.0
 76
     1
 77
     6
 78
     2
 67
     7
 79
     5
170
     0
171
     0
290
     0
174
     0
 93
        1
 44
0.0
173
     0
291
     1
 45
0.0
1001
ACAD
1000
AcDbSavedByObjectVersion
1070
     0
  0
VISUALSTYLE
  5
2B
102
{ACAD_REACTORS
330
2A
102
}
102
{ACAD_XDICTIONARY
360
30D
102
}
330
2A
100
AcDbVisualStyle
  2
Flat
 70
     0
 71
     2
 72
     1
 73
     1
 90
        2
 40
-0.6
 41
30.0
 62
     5
 63
     7
 74
     0
 91
        4
 64
     7
 65
   257
 75
     1
175
     1
 42
1.0
 92
        8
 66
     7
 43
1.0
 76
     1
 77
     6
 78
     2
 67
     7
 79
     5
170
     0
171
     0
290
     0
174
     0
 93
       13
 44
0.0
173
     0
291
     1
 45
0.0
1001
ACAD
1000
AcDbSavedByObjectVersion
1070
     0
  0
VISUALSTYLE
  5
2C
102
{ACAD_REACTORS
330
2A
102
}
102
{ACAD_XDICTIONARY
360
30F
102
}
330
2A
100
AcDbVisualStyle
  2
FlatWithEdges
 70
     1
 71
     2
 72
     1
 73
     1
 90
        2
 40
-0.6
 41
30.0
 62
     5
 63
     7
 74
     1
 91
        4
 64
     7
 65
   257
 75
     1
175
     1
 42
1.0
 92
        0
 66
   257
 43
1.0
 76
     1
 77
     6
 78
     2
 67
     7
 79
     5
170
     0
171
     0
290
     0
174
     0
 93
       13
 44
0.0
173
     0
291
     1
 45
0.0
1001
ACAD
1000
AcDbSavedByObjectVersion
1070
     0
  0
VISUALSTYLE
  5
2D
102
{ACAD_REACTORS
330
2A
102
}
102
{ACAD_XDICTIONARY
360
311
102
}
330
2A
100
AcDbVisualStyle
  2
Gouraud
 70
     2
 71
     2
 72
     2
 73
     1
 90
        2
 40
-0.6
 41
30.0
 62
     5
 63
     7
 74
     0
 91
        4
 64
     7
 65
   257
 75
     1
175
     1
 42
1.0
 92
        0
 66
     7
 43
1.0
 76
     1
 77
     6
 78
     2
 67
     7
 79
     5
170
     0
171
     0
290
     0
174
     0
 93
       13
 44
0.0
173
     0
291
     1
 45
0.0
1001
ACAD
1000
AcDbSavedByObjectVersion
1070
     0
  0
VISUALSTYLE
  5
2E
102
{ACAD_REACTORS
330
2A
102
}
102
{ACAD_XDICTIONARY
360
313
102
}
330
2A
100
AcDbVisualStyle
  2
GouraudWithEdges
 70
     3
 71
     2
 72
     2
 73
     1
 90
        2
 40
-0.6
 41
30.0
 62
     5
 63
     7
 74
     1
 91
        4
 64
     7
 65
   257
 75
     1
175
     1
 42
1.0
 92
        0
 66
   257
 43
1.0
 76
     1
 77
     6
 78
     2
 67
     7
 79
     5
170
     0
171
     0
290
     0
174
     0
 93
       13
 44
0.0
173
     0
291
     1
 45
0.0
1001
ACAD
1000
AcDbSavedByObjectVersion
1070
     0
  0
VISUALSTYLE
  5
38
102
{ACAD_REACTORS
330
2A
102
}
102
{ACAD_XDICTIONARY
360
327
102
}
330
2A
100
AcDbVisualStyle
  2
Linepattern
 70
    14
 71
     2
 72
     2
 73
     0
 90
        0
 40
-0.6
 41
-30.0
 62
     5
 63
     7
 74
     1
 91
        4
 64
     7
 65
   257
 75
     7
175
     7
 42
1.0
 92
        8
 66
     7
 43
1.0
 76
     1
 77
     6
 78
     2
 67
     7
 79
     5
170
     0
171
     0
290
     0
174
     0
 93
        1
 44
0.0
173
     0
291
     1
 45
0.0
1001
ACAD
1000
AcDbSavedByObjectVersion
1070
     0
  0
VISUALSTYLE
  5
33
102
{ACAD_REACTORS
330
2A
102
}
102
{ACAD_XDICTIONARY
360
31D
102
}
330
2A
100
AcDbVisualStyle
  2
Realistic
 70
     8
 71
     2
 72
     2
 73
     0
 90
        0
 40
-0.6
 41
-30.0
 62
     5
 63
     7
 74
     1
 91
        0
 64
     7
 65
   257
 75
     1
175
     1
 42
1.0
 92
        8
 66
     8
 43
1.0
 76
     1
 77
     6
 78
     2
 67
     7
 79
     5
170
     0
171
     0
290
     0
174
     0
 93
       13
 44
0.0
173
     0
291
     0
 45
0.0
1001
ACAD
1000
AcDbSavedByObjectVersion
1070
     0
  0
VISUALSTYLE
  5
37
102
{ACAD_REACTORS
330
2A
102
}
102
{ACAD_XDICTIONARY
360
325
102
}
330
2A
100
AcDbVisualStyle
  2
Thicken
 70
    13
 71
     2
 72
     2
 73
     0
 90
        0
 40
-0.6
 41
-30.0
 62
     5
 63
     7
 74
     1
 91
        4
 64
     7
 65
   257
 75
     1
175
     1
 42
1.0
 92
       12
 66
     7
 43
1.0
 76
     1
 77
     6
 78
     2
 67
     7
 79
     5
170
     0
171
     0
290
     0
174
     0
 93
        1
 44
0.0
173
     0
291
     1
 45
0.0
1001
ACAD
1000
AcDbSavedByObjectVersion
1070
     0
  0
DICTIONARYVAR
  5
30B
102
{ACAD_REACTORS
330
306
102
}
330
306
100
DictionaryVariables
280
     0
  1
2
  0
DICTIONARYVAR
  5
30C
102
{ACAD_REACTORS
330
306
102
}
330
306
100
DictionaryVariables
280
     0
  1
1
  0
DICTIONARYVAR
  5
30A
102
{ACAD_REACTORS
330
306
102
}
330
306
100
DictionaryVariables
280
     0
  1
80.000000
  0
DICTIONARYVAR
  5
309
102
{ACAD_REACTORS
330
306
102
}
330
306
100
DictionaryVariables
280
     0
  1
5.000000
  0
DICTIONARY
  5
32F
330
3D
100
AcDbDictionary
280
     1
281
     1
  3
ACAD_XREC_ROUNDTRIP
360
330
  0
DICTIONARY
  5
32D
330
3C
100
AcDbDictionary
280
     1
281
     1
  3
ACAD_XREC_ROUNDTRIP
360
32E
  0
DICTIONARY
  5
331
330
3E
100
AcDbDictionary
280
     1
281
     1
  3
ACAD_XREC_ROUNDTRIP
360
332
  0
DICTIONARY
  5
315
330
2F
100
AcDbDictionary
280
     1
281
     1
  3
ACAD_XREC_ROUNDTRIP
360
316
  0
DICTIONARY
  5
319
330
31
100
AcDbDictionary
280
     1
281
     1
  3
ACAD_XREC_ROUNDTRIP
360
31A
  0
DICTIONARY
  5
317
330
30
100
AcDbDictionary
280
     1
281
     1
  3
ACAD_XREC_ROUNDTRIP
360
318
  0
DICTIONARY
  5
31B
330
32
100
AcDbDictionary
280
     1
281
     1
  3
ACAD_XREC_ROUNDTRIP
360
31C
  0
DICTIONARY
  5
323
330
36
100
AcDbDictionary
280
     1
281
     1
  3
ACAD_XREC_ROUNDTRIP
360
324
  0
DICTIONARY
  5
32B
330
3A
100
AcDbDictionary
280
     1
281
     1
  3
ACAD_XREC_ROUNDTRIP
360
32C
  0
DICTIONARY
  5
31F
330
34
100
AcDbDictionary
280
     1
281
     1
  3
ACAD_XREC_ROUNDTRIP
360
320
  0
DICTIONARY
  5
321
330
35
100
AcDbDictionary
280
     1
281
     1
  3
ACAD_XREC_ROUNDTRIP
360
322
  0
DICTIONARY
  5
329
330
39
100
AcDbDictionary
280
     1
281
     1
  3
ACAD_XREC_ROUNDTRIP
360
32A
  0
DICTIONARY
  5
30D
330
2B
100
AcDbDictionary
280
     1
281
     1
  3
ACAD_XREC_ROUNDTRIP
360
30E
  0
DICTIONARY
  5
30F
330
2C
100
AcDbDictionary
280
     1
281
     1
  3
ACAD_XREC_ROUNDTRIP
360
310
  0
DICTIONARY
  5
311
330
2D
100
AcDbDictionary
280
     1
281
     1
  3
ACAD_XREC_ROUNDTRIP
360
312
  0
DICTIONARY
  5
313
330
2E
100
AcDbDictionary
280
     1
281
     1
  3
ACAD_XREC_ROUNDTRIP
360
314
  0
DICTIONARY
  5
327
330
38
100
AcDbDictionary
280
     1
281
     1
  3
ACAD_XREC_ROUNDTRIP
360
328
  0
DICTIONARY
  5
31D
330
33
100
AcDbDictionary
280
     1
281
     1
  3
ACAD_XREC_ROUNDTRIP
360
31E
  0
DICTIONARY
  5
325
330
37
100
AcDbDictionary
280
     1
281
     1
  3
ACAD_XREC_ROUNDTRIP
360
326
  0
XRECORD
  5
330
102
{ACAD_REACTORS
330
32F
102
}
330
32F
100
AcDbXrecord
280
     1
102
MATERIAL
148
0.0
149
0.0
149
0.0
 93
        0
 94
      127
282
     0
 72
     1
 77
     1
171
     1
175
     1
179
     1
273
     0
  0
XRECORD
  5
32E
102
{ACAD_REACTORS
330
32D
102
}
330
32D
100
AcDbXrecord
280
     1
102
MATERIAL
148
0.0
149
0.0
149
0.0
 93
        0
 94
      127
282
     0
 72
     1
 77
     1
171
     1
175
     1
179
     1
273
     0
  0
XRECORD
  5
332
102
{ACAD_REACTORS
330
331
102
}
330
331
100
AcDbXrecord
280
     1
102
MATERIAL
148
0.0
149
0.0
149
0.0
 93
        0
 94
      127
282
     0
 72
     1
 77
     1
171
     1
175
     1
179
     1
273
     0
  0
XRECORD
  5
316
102
{ACAD_REACTORS
330
315
102
}
330
315
100
AcDbXrecord
280
     1
102
RTVSPropertyOp0
 70
     1
102
RTVSPropertyOp1
 70
     1
102
RTVSPropertyOp2
 70
     1
102
RTVSPropertyOp3
 70
     1
102
RTVSPropertyOp4
 70
     1
102
RTVSPropertyOp5
 70
     1
102
RTVSPropertyOp6
 70
     1
102
RTVSPropertyOp7
 70
     1
102
RTVSPropertyOp8
 70
     1
102
RTVSPropertyOp9
 70
     1
102
RTVSPropertyOp10
 70
     1
102
RTVSPropertyOp11
 70
     1
102
RTVSPropertyOp12
 70
     1
102
RTVSPropertyOp13
 70
     1
102
RTVSPropertyOp14
 70
     1
102
RTVSPropertyOp15
 70
     1
102
RTVSPropertyOp16
 70
     1
102
RTVSPropertyOp17
 70
     1
102
RTVSPropertyOp18
 70
     1
102
RTVSPropertyOp19
 70
     1
102
RTVSPropertyOp20
 70
     1
102
RTVSPropertyOp21
 70
     1
102
RTVSPropertyOp22
 70
     1
102
RTVSPropertyOp23
 70
     1
102
RTVSPropertyOp24
 70
     1
102
RTVSPropertyOp25
 70
     1
102
RTVSPropertyOp26
 70
     1
102
RTVSPropertyOp27
 70
     1
102
RTVSPropertyOp28
 70
     1
102
RTVSPropertyOp29
 70
     1
102
RTVSPropertyOp30
 70
     1
102
RTVSPropertyOp31
 70
     1
102
RTVSPropertyOp32
 70
     1
  0
XRECORD
  5
31A
102
{ACAD_REACTORS
330
319
102
}
330
319
100
AcDbXrecord
280
     1
102
RTVSPropertyOp0
 70
     1
102
RTVSPropertyOp1
 70
     1
102
RTVSPropertyOp2
 70
     1
102
RTVSPropertyOp3
 70
     1
102
RTVSPropertyOp4
 70
     1
102
RTVSPropertyOp5
 70
     1
102
RTVSPropertyOp6
 70
     1
102
RTVSPropertyOp7
 70
     1
102
RTVSPropertyOp8
 70
     1
102
RTVSPropertyOp9
 70
     1
102
RTVSPropertyOp10
 70
     1
102
RTVSPropertyOp11
 70
     1
102
RTVSPropertyOp12
 70
     1
102
RTVSPropertyOp13
 70
     1
102
RTVSPropertyOp14
 70
     1
102
RTVSPropertyOp15
 70
     1
102
RTVSPropertyOp16
 70
     1
102
RTVSPropertyOp17
 70
     1
102
RTVSPropertyOp18
 70
     1
102
RTVSPropertyOp19
 70
     1
102
RTVSPropertyOp20
 70
     1
102
RTVSPropertyOp21
 70
     1
102
RTVSPropertyOp22
 70
     1
102
RTVSPropertyOp23
 70
     1
102
RTVSPropertyOp24
 70
     1
102
RTVSPropertyOp25
 70
     1
102
RTVSPropertyOp26
 70
     1
102
RTVSPropertyOp27
 70
     1
102
RTVSPropertyOp28
 70
     1
102
RTVSPropertyOp29
 70
     1
102
RTVSPropertyOp30
 70
     1
102
RTVSPropertyOp31
 70
     1
102
RTVSPropertyOp32
 70
     1
  0
XRECORD
  5
318
102
{ACAD_REACTORS
330
317
102
}
330
317
100
AcDbXrecord
280
     1
102
RTVSPropertyOp0
 70
     1
102
RTVSPropertyOp1
 70
     1
102
RTVSPropertyOp2
 70
     1
102
RTVSPropertyOp3
 70
     1
102
RTVSPropertyOp4
 70
     1
102
RTVSPropertyOp5
 70
     1
102
RTVSPropertyOp6
 70
     1
102
RTVSPropertyOp7
 70
     1
102
RTVSPropertyOp8
 70
     1
102
RTVSPropertyOp9
 70
     1
102
RTVSPropertyOp10
 70
     1
102
RTVSPropertyOp11
 70
     1
102
RTVSPropertyOp12
 70
     1
102
RTVSPropertyOp13
 70
     1
102
RTVSPropertyOp14
 70
     1
102
RTVSPropertyOp15
 70
     1
102
RTVSPropertyOp16
 70
     1
102
RTVSPropertyOp17
 70
     1
102
RTVSPropertyOp18
 70
     1
102
RTVSPropertyOp19
 70
     1
102
RTVSPropertyOp20
 70
     1
102
RTVSPropertyOp21
 70
     1
102
RTVSPropertyOp22
 70
     1
102
RTVSPropertyOp23
 70
     1
102
RTVSPropertyOp24
 70
     1
102
RTVSPropertyOp25
 70
     1
102
RTVSPropertyOp26
 70
     1
102
RTVSPropertyOp27
 70
     1
102
RTVSPropertyOp28
 70
     1
102
RTVSPropertyOp29
 70
     1
102
RTVSPropertyOp30
 70
     1
102
RTVSPropertyOp31
 70
     1
102
RTVSPropertyOp32
 70
     1
  0
XRECORD
  5
31C
102
{ACAD_REACTORS
330
31B
102
}
330
31B
100
AcDbXrecord
280
     1
102
RTVSPropertyOp0
 70
     1
102
RTVSPropertyOp1
 70
     1
102
RTVSPropertyOp2
 70
     1
102
RTVSPropertyOp3
 70
     1
102
RTVSPropertyOp4
 70
     1
102
RTVSPropertyOp5
 70
     1
102
RTVSPropertyOp6
 70
     1
102
RTVSPropertyOp7
 70
     1
102
RTVSPropertyOp8
 70
     1
102
RTVSPropertyOp9
 70
     1
102
RTVSPropertyOp10
 70
     1
102
RTVSPropertyOp11
 70
     1
102
RTVSPropertyOp12
 70
     1
102
RTVSPropertyOp13
 70
     1
102
RTVSPropertyOp14
 70
     1
102
RTVSPropertyOp15
 70
     1
102
RTVSPropertyOp16
 70
     1
102
RTVSPropertyOp17
 70
     1
102
RTVSPropertyOp18
 70
     1
102
RTVSPropertyOp19
 70
     1
102
RTVSPropertyOp20
 70
     1
102
RTVSPropertyOp21
 70
     1
102
RTVSPropertyOp22
 70
     1
102
RTVSPropertyOp23
 70
     1
102
RTVSPropertyOp24
 70
     1
102
RTVSPropertyOp25
 70
     1
102
RTVSPropertyOp26
 70
     1
102
RTVSPropertyOp27
 70
     1
102
RTVSPropertyOp28
 70
     1
102
RTVSPropertyOp29
 70
     1
102
RTVSPropertyOp30
 70
     1
102
RTVSPropertyOp31
 70
     1
102
RTVSPropertyOp32
 70
     1
  0
XRECORD
  5
324
102
{ACAD_REACTORS
330
323
102
}
330
323
100
AcDbXrecord
280
     1
102
RTVSPropertyOp0
 70
     1
102
RTVSPropertyOp1
 70
     1
102
RTVSPropertyOp2
 70
     1
102
RTVSPropertyOp3
 70
     1
102
RTVSPropertyOp4
 70
     1
102
RTVSPropertyOp5
 70
     1
102
RTVSPropertyOp6
 70
     1
102
RTVSPropertyOp7
 70
     1
102
RTVSPropertyOp8
 70
     1
102
RTVSPropertyOp9
 70
     1
102
RTVSPropertyOp10
 70
     1
102
RTVSPropertyOp11
 70
     1
102
RTVSPropertyOp12
 70
     1
102
RTVSPropertyOp13
 70
     1
102
RTVSPropertyOp14
 70
     1
102
RTVSPropertyOp15
 70
     1
102
RTVSPropertyOp16
 70
     1
102
RTVSPropertyOp17
 70
     1
102
RTVSPropertyOp18
 70
     1
102
RTVSPropertyOp19
 70
     1
102
RTVSPropertyOp20
 70
     1
102
RTVSPropertyOp21
 70
     1
102
RTVSPropertyOp22
 70
     1
102
RTVSPropertyOp23
 70
     1
102
RTVSPropertyOp24
 70
     1
102
RTVSPropertyOp25
 70
     1
102
RTVSPropertyOp26
 70
     1
102
RTVSPropertyOp27
 70
     1
102
RTVSPropertyOp28
 70
     1
102
RTVSPropertyOp29
 70
     1
102
RTVSPropertyOp30
 70
     1
102
RTVSPropertyOp31
 70
     1
102
RTVSPropertyOp32
 70
     1
  0
XRECORD
  5
32C
102
{ACAD_REACTORS
330
32B
102
}
330
32B
100
AcDbXrecord
280
     1
102
RTVSPropertyOp0
 70
     1
102
RTVSPropertyOp1
 70
     1
102
RTVSPropertyOp2
 70
     1
102
RTVSPropertyOp3
 70
     1
102
RTVSPropertyOp4
 70
     1
102
RTVSPropertyOp5
 70
     1
102
RTVSPropertyOp6
 70
     1
102
RTVSPropertyOp7
 70
     1
102
RTVSPropertyOp8
 70
     1
102
RTVSPropertyOp9
 70
     1
102
RTVSPropertyOp10
 70
     1
102
RTVSPropertyOp11
 70
     1
102
RTVSPropertyOp12
 70
     1
102
RTVSPropertyOp13
 70
     1
102
RTVSPropertyOp14
 70
     1
102
RTVSPropertyOp15
 70
     1
102
RTVSPropertyOp16
 70
     1
102
RTVSPropertyOp17
 70
     1
102
RTVSPropertyOp18
 70
     1
102
RTVSPropertyOp19
 70
     1
102
RTVSPropertyOp20
 70
     1
102
RTVSPropertyOp21
 70
     1
102
RTVSPropertyOp22
 70
     1
102
RTVSPropertyOp23
 70
     1
102
RTVSPropertyOp24
 70
     1
102
RTVSPropertyOp25
 70
     1
102
RTVSPropertyOp26
 70
     1
102
RTVSPropertyOp27
 70
     1
102
RTVSPropertyOp28
 70
     1
102
RTVSPropertyOp29
 70
     1
102
RTVSPropertyOp30
 70
     1
102
RTVSPropertyOp31
 70
     1
102
RTVSPropertyOp32
 70
     1
  0
XRECORD
  5
320
102
{ACAD_REACTORS
330
31F
102
}
330
31F
100
AcDbXrecord
280
     1
102
RTVSPropertyOp0
 70
     1
102
RTVSPropertyOp1
 70
     1
102
RTVSPropertyOp2
 70
     1
102
RTVSPropertyOp3
 70
     1
102
RTVSPropertyOp4
 70
     1
102
RTVSPropertyOp5
 70
     1
102
RTVSPropertyOp6
 70
     1
102
RTVSPropertyOp7
 70
     1
102
RTVSPropertyOp8
 70
     1
102
RTVSPropertyOp9
 70
     1
102
RTVSPropertyOp10
 70
     1
102
RTVSPropertyOp11
 70
     1
102
RTVSPropertyOp12
 70
     1
102
RTVSPropertyOp13
 70
     1
102
RTVSPropertyOp14
 70
     1
102
RTVSPropertyOp15
 70
     1
102
RTVSPropertyOp16
 70
     1
102
RTVSPropertyOp17
 70
     1
102
RTVSPropertyOp18
 70
     1
102
RTVSPropertyOp19
 70
     1
102
RTVSPropertyOp20
 70
     1
102
RTVSPropertyOp21
 70
     1
102
RTVSPropertyOp22
 70
     1
102
RTVSPropertyOp23
 70
     1
102
RTVSPropertyOp24
 70
     1
102
RTVSPropertyOp25
 70
     1
102
RTVSPropertyOp26
 70
     1
102
RTVSPropertyOp27
 70
     1
102
RTVSPropertyOp28
 70
     1
102
RTVSPropertyOp29
 70
     1
102
RTVSPropertyOp30
 70
     1
102
RTVSPropertyOp31
 70
     1
102
RTVSPropertyOp32
 70
     1
  0
XRECORD
  5
322
102
{ACAD_REACTORS
330
321
102
}
330
321
100
AcDbXrecord
280
     1
102
RTVSPropertyOp0
 70
     1
102
RTVSPropertyOp1
 70
     1
102
RTVSPropertyOp2
 70
     1
102
RTVSPropertyOp3
 70
     1
102
RTVSPropertyOp4
 70
     1
102
RTVSPropertyOp5
 70
     1
102
RTVSPropertyOp6
 70
     1
102
RTVSPropertyOp7
 70
     1
102
RTVSPropertyOp8
 70
     1
102
RTVSPropertyOp9
 70
     1
102
RTVSPropertyOp10
 70
     1
102
RTVSPropertyOp11
 70
     1
102
RTVSPropertyOp12
 70
     1
102
RTVSPropertyOp13
 70
     1
102
RTVSPropertyOp14
 70
     1
102
RTVSPropertyOp15
 70
     1
102
RTVSPropertyOp16
 70
     1
102
RTVSPropertyOp17
 70
     1
102
RTVSPropertyOp18
 70
     1
102
RTVSPropertyOp19
 70
     1
102
RTVSPropertyOp20
 70
     1
102
RTVSPropertyOp21
 70
     1
102
RTVSPropertyOp22
 70
     1
102
RTVSPropertyOp23
 70
     1
102
RTVSPropertyOp24
 70
     1
102
RTVSPropertyOp25
 70
     1
102
RTVSPropertyOp26
 70
     1
102
RTVSPropertyOp27
 70
     1
102
RTVSPropertyOp28
 70
     1
102
RTVSPropertyOp29
 70
     1
102
RTVSPropertyOp30
 70
     1
102
RTVSPropertyOp31
 70
     1
102
RTVSPropertyOp32
 70
     1
  0
XRECORD
  5
32A
102
{ACAD_REACTORS
330
329
102
}
330
329
100
AcDbXrecord
280
     1
102
RTVSPropertyOp0
 70
     1
102
RTVSPropertyOp1
 70
     1
102
RTVSPropertyOp2
 70
     1
102
RTVSPropertyOp3
 70
     1
102
RTVSPropertyOp4
 70
     1
102
RTVSPropertyOp5
 70
     1
102
RTVSPropertyOp6
 70
     1
102
RTVSPropertyOp7
 70
     1
102
RTVSPropertyOp8
 70
     1
102
RTVSPropertyOp9
 70
     1
102
RTVSPropertyOp10
 70
     1
102
RTVSPropertyOp11
 70
     1
102
RTVSPropertyOp12
 70
     1
102
RTVSPropertyOp13
 70
     1
102
RTVSPropertyOp14
 70
     1
102
RTVSPropertyOp15
 70
     1
102
RTVSPropertyOp16
 70
     1
102
RTVSPropertyOp17
 70
     1
102
RTVSPropertyOp18
 70
     1
102
RTVSPropertyOp19
 70
     1
102
RTVSPropertyOp20
 70
     1
102
RTVSPropertyOp21
 70
     1
102
RTVSPropertyOp22
 70
     1
102
RTVSPropertyOp23
 70
     1
102
RTVSPropertyOp24
 70
     1
102
RTVSPropertyOp25
 70
     1
102
RTVSPropertyOp26
 70
     1
102
RTVSPropertyOp27
 70
     1
102
RTVSPropertyOp28
 70
     1
102
RTVSPropertyOp29
 70
     1
102
RTVSPropertyOp30
 70
     1
102
RTVSPropertyOp31
 70
     1
102
RTVSPropertyOp32
 70
     1
  0
XRECORD
  5
30E
102
{ACAD_REACTORS
330
30D
102
}
330
30D
100
AcDbXrecord
280
     1
102
RTVSPropertyOp0
 70
     1
102
RTVSPropertyOp1
 70
     1
102
RTVSPropertyOp2
 70
     1
102
RTVSPropertyOp3
 70
     1
102
RTVSPropertyOp4
 70
     1
102
RTVSPropertyOp5
 70
     1
102
RTVSPropertyOp6
 70
     1
102
RTVSPropertyOp7
 70
     1
102
RTVSPropertyOp8
 70
     1
102
RTVSPropertyOp9
 70
     1
102
RTVSPropertyOp10
 70
     1
102
RTVSPropertyOp11
 70
     1
102
RTVSPropertyOp12
 70
     1
102
RTVSPropertyOp13
 70
     1
102
RTVSPropertyOp14
 70
     1
102
RTVSPropertyOp15
 70
     1
102
RTVSPropertyOp16
 70
     1
102
RTVSPropertyOp17
 70
     1
102
RTVSPropertyOp18
 70
     1
102
RTVSPropertyOp19
 70
     1
102
RTVSPropertyOp20
 70
     1
102
RTVSPropertyOp21
 70
     1
102
RTVSPropertyOp22
 70
     1
102
RTVSPropertyOp23
 70
     1
102
RTVSPropertyOp24
 70
     1
102
RTVSPropertyOp25
 70
     1
102
RTVSPropertyOp26
 70
     1
102
RTVSPropertyOp27
 70
     1
102
RTVSPropertyOp28
 70
     1
102
RTVSPropertyOp29
 70
     1
102
RTVSPropertyOp30
 70
     1
102
RTVSPropertyOp31
 70
     1
102
RTVSPropertyOp32
 70
     1
  0
XRECORD
  5
310
102
{ACAD_REACTORS
330
30F
102
}
330
30F
100
AcDbXrecord
280
     1
102
RTVSPropertyOp0
 70
     1
102
RTVSPropertyOp1
 70
     1
102
RTVSPropertyOp2
 70
     1
102
RTVSPropertyOp3
 70
     1
102
RTVSPropertyOp4
 70
     1
102
RTVSPropertyOp5
 70
     1
102
RTVSPropertyOp6
 70
     1
102
RTVSPropertyOp7
 70
     1
102
RTVSPropertyOp8
 70
     1
102
RTVSPropertyOp9
 70
     1
102
RTVSPropertyOp10
 70
     1
102
RTVSPropertyOp11
 70
     1
102
RTVSPropertyOp12
 70
     1
102
RTVSPropertyOp13
 70
     1
102
RTVSPropertyOp14
 70
     1
102
RTVSPropertyOp15
 70
     1
102
RTVSPropertyOp16
 70
     1
102
RTVSPropertyOp17
 70
     1
102
RTVSPropertyOp18
 70
     1
102
RTVSPropertyOp19
 70
     1
102
RTVSPropertyOp20
 70
     1
102
RTVSPropertyOp21
 70
     1
102
RTVSPropertyOp22
 70
     1
102
RTVSPropertyOp23
 70
     1
102
RTVSPropertyOp24
 70
     1
102
RTVSPropertyOp25
 70
     1
102
RTVSPropertyOp26
 70
     1
102
RTVSPropertyOp27
 70
     1
102
RTVSPropertyOp28
 70
     1
102
RTVSPropertyOp29
 70
     1
102
RTVSPropertyOp30
 70
     1
102
RTVSPropertyOp31
 70
     1
102
RTVSPropertyOp32
 70
     1
  0
XRECORD
  5
312
102
{ACAD_REACTORS
330
311
102
}
330
311
100
AcDbXrecord
280
     1
102
RTVSPropertyOp0
 70
     1
102
RTVSPropertyOp1
 70
     1
102
RTVSPropertyOp2
 70
     1
102
RTVSPropertyOp3
 70
     1
102
RTVSPropertyOp4
 70
     1
102
RTVSPropertyOp5
 70
     1
102
RTVSPropertyOp6
 70
     1
102
RTVSPropertyOp7
 70
     1
102
RTVSPropertyOp8
 70
     1
102
RTVSPropertyOp9
 70
     1
102
RTVSPropertyOp10
 70
     1
102
RTVSPropertyOp11
 70
     1
102
RTVSPropertyOp12
 70
     1
102
RTVSPropertyOp13
 70
     1
102
RTVSPropertyOp14
 70
     1
102
RTVSPropertyOp15
 70
     1
102
RTVSPropertyOp16
 70
     1
102
RTVSPropertyOp17
 70
     1
102
RTVSPropertyOp18
 70
     1
102
RTVSPropertyOp19
 70
     1
102
RTVSPropertyOp20
 70
     1
102
RTVSPropertyOp21
 70
     1
102
RTVSPropertyOp22
 70
     1
102
RTVSPropertyOp23
 70
     1
102
RTVSPropertyOp24
 70
     1
102
RTVSPropertyOp25
 70
     1
102
RTVSPropertyOp26
 70
     1
102
RTVSPropertyOp27
 70
     1
102
RTVSPropertyOp28
 70
     1
102
RTVSPropertyOp29
 70
     1
102
RTVSPropertyOp30
 70
     1
102
RTVSPropertyOp31
 70
     1
102
RTVSPropertyOp32
 70
     1
  0
XRECORD
  5
314
102
{ACAD_REACTORS
330
313
102
}
330
313
100
AcDbXrecord
280
     1
102
RTVSPropertyOp0
 70
     1
102
RTVSPropertyOp1
 70
     1
102
RTVSPropertyOp2
 70
     1
102
RTVSPropertyOp3
 70
     1
102
RTVSPropertyOp4
 70
     1
102
RTVSPropertyOp5
 70
     1
102
RTVSPropertyOp6
 70
     1
102
RTVSPropertyOp7
 70
     1
102
RTVSPropertyOp8
 70
     1
102
RTVSPropertyOp9
 70
     1
102
RTVSPropertyOp10
 70
     1
102
RTVSPropertyOp11
 70
     1
102
RTVSPropertyOp12
 70
     1
102
RTVSPropertyOp13
 70
     1
102
RTVSPropertyOp14
 70
     1
102
RTVSPropertyOp15
 70
     1
102
RTVSPropertyOp16
 70
     1
102
RTVSPropertyOp17
 70
     1
102
RTVSPropertyOp18
 70
     1
102
RTVSPropertyOp19
 70
     1
102
RTVSPropertyOp20
 70
     1
102
RTVSPropertyOp21
 70
     1
102
RTVSPropertyOp22
 70
     1
102
RTVSPropertyOp23
 70
     1
102
RTVSPropertyOp24
 70
     1
102
RTVSPropertyOp25
 70
     1
102
RTVSPropertyOp26
 70
     1
102
RTVSPropertyOp27
 70
     1
102
RTVSPropertyOp28
 70
     1
102
RTVSPropertyOp29
 70
     1
102
RTVSPropertyOp30
 70
     1
102
RTVSPropertyOp31
 70
     1
102
RTVSPropertyOp32
 70
     1
  0
XRECORD
  5
328
102
{ACAD_REACTORS
330
327
102
}
330
327
100
AcDbXrecord
280
     1
102
RTVSPropertyOp0
 70
     1
102
RTVSPropertyOp1
 70
     1
102
RTVSPropertyOp2
 70
     1
102
RTVSPropertyOp3
 70
     1
102
RTVSPropertyOp4
 70
     1
102
RTVSPropertyOp5
 70
     1
102
RTVSPropertyOp6
 70
     1
102
RTVSPropertyOp7
 70
     1
102
RTVSPropertyOp8
 70
     1
102
RTVSPropertyOp9
 70
     1
102
RTVSPropertyOp10
 70
     1
102
RTVSPropertyOp11
 70
     1
102
RTVSPropertyOp12
 70
     1
102
RTVSPropertyOp13
 70
     1
102
RTVSPropertyOp14
 70
     1
102
RTVSPropertyOp15
 70
     1
102
RTVSPropertyOp16
 70
     1
102
RTVSPropertyOp17
 70
     1
102
RTVSPropertyOp18
 70
     1
102
RTVSPropertyOp19
 70
     1
102
RTVSPropertyOp20
 70
     1
102
RTVSPropertyOp21
 70
     1
102
RTVSPropertyOp22
 70
     1
102
RTVSPropertyOp23
 70
     1
102
RTVSPropertyOp24
 70
     1
102
RTVSPropertyOp25
 70
     1
102
RTVSPropertyOp26
 70
     1
102
RTVSPropertyOp27
 70
     1
102
RTVSPropertyOp28
 70
     1
102
RTVSPropertyOp29
 70
     1
102
RTVSPropertyOp30
 70
     1
102
RTVSPropertyOp31
 70
     1
102
RTVSPropertyOp32
 70
     1
  0
XRECORD
  5
31E
102
{ACAD_REACTORS
330
31D
102
}
330
31D
100
AcDbXrecord
280
     1
102
RTVSPropertyOp0
 70
     1
102
RTVSPropertyOp1
 70
     1
102
RTVSPropertyOp2
 70
     1
102
RTVSPropertyOp3
 70
     1
102
RTVSPropertyOp4
 70
     1
102
RTVSPropertyOp5
 70
     1
102
RTVSPropertyOp6
 70
     1
102
RTVSPropertyOp7
 70
     1
102
RTVSPropertyOp8
 70
     1
102
RTVSPropertyOp9
 70
     1
102
RTVSPropertyOp10
 70
     1
102
RTVSPropertyOp11
 70
     1
102
RTVSPropertyOp12
 70
     1
102
RTVSPropertyOp13
 70
     1
102
RTVSPropertyOp14
 70
     1
102
RTVSPropertyOp15
 70
     1
102
RTVSPropertyOp16
 70
     1
102
RTVSPropertyOp17
 70
     1
102
RTVSPropertyOp18
 70
     1
102
RTVSPropertyOp19
 70
     1
102
RTVSPropertyOp20
 70
     1
102
RTVSPropertyOp21
 70
     1
102
RTVSPropertyOp22
 70
     1
102
RTVSPropertyOp23
 70
     1
102
RTVSPropertyOp24
 70
     1
102
RTVSPropertyOp25
 70
     1
102
RTVSPropertyOp26
 70
     1
102
RTVSPropertyOp27
 70
     1
102
RTVSPropertyOp28
 70
     1
102
RTVSPropertyOp29
 70
     1
102
RTVSPropertyOp30
 70
     1
102
RTVSPropertyOp31
 70
     1
102
RTVSPropertyOp32
 70
     1
  0
XRECORD
  5
326
102
{ACAD_REACTORS
330
325
102
}
330
325
100
AcDbXrecord
280
     1
102
RTVSPropertyOp0
 70
     1
102
RTVSPropertyOp1
 70
     1
102
RTVSPropertyOp2
 70
     1
102
RTVSPropertyOp3
 70
     1
102
RTVSPropertyOp4
 70
     1
102
RTVSPropertyOp5
 70
     1
102
RTVSPropertyOp6
 70
     1
102
RTVSPropertyOp7
 70
     1
102
RTVSPropertyOp8
 70
     1
102
RTVSPropertyOp9
 70
     1
102
RTVSPropertyOp10
 70
     1
102
RTVSPropertyOp11
 70
     1
102
RTVSPropertyOp12
 70
     1
102
RTVSPropertyOp13
 70
     1
102
RTVSPropertyOp14
 70
     1
102
RTVSPropertyOp15
 70
     1
102
RTVSPropertyOp16
 70
     1
102
RTVSPropertyOp17
 70
     1
102
RTVSPropertyOp18
 70
     1
102
RTVSPropertyOp19
 70
     1
102
RTVSPropertyOp20
 70
     1
102
RTVSPropertyOp21
 70
     1
102
RTVSPropertyOp22
 70
     1
102
RTVSPropertyOp23
 70
     1
102
RTVSPropertyOp24
 70
     1
102
RTVSPropertyOp25
 70
     1
102
RTVSPropertyOp26
 70
     1
102
RTVSPropertyOp27
 70
     1
102
RTVSPropertyOp28
 70
     1
102
RTVSPropertyOp29
 70
     1
102
RTVSPropertyOp30
 70
     1
102
RTVSPropertyOp31
 70
     1
102
RTVSPropertyOp32
 70
     1
  0
ENDSEC
  0
EOF
