  0
SECTION
  2
HEADER
  9
$ACADVER
  1
AC1015
  9
$ACADMAINTVER
 70
     6
  9
$DWGCODEPAGE
  3
ANSI_1252
  9
$INSBASE
 10
0.0
 20
0.0
 30
0.0
  9
$EXTMIN
 10
0.0
 20
0.0
 30
0.0
  9
$EXTMAX
 10
297.0
 20
210.0
 30
0.0
  9
$LIMMIN
 10
0.0
 20
0.0
  9
$LIMMAX
 10
297.0
 20
210.0
  9
$ORTHOMODE
 70
     0
  9
$REGENMODE
 70
     1
  9
$FILLMODE
 70
     1
  9
$QTEXTMODE
 70
     0
  9
$MIRRTEXT
 70
     1
  9
$LTSCALE
 40
1.0
  9
$ATTMODE
 70
     1
  9
$TEXTSIZE
 40
2.5
  9
$TRACEWID
 40
1.0
  9
$TEXTSTYLE
  7
Standard
  9
$CLAYER
  8
0
  9
$CELTYPE
  6
ByLayer
  9
$CECOLOR
 62
   256
  9
$CELTSCALE
 40
1.0
  9
$DISPSILH
 70
     0
  9
$DIMSCALE
 40
1.0
  9
$DIMASZ
 40
2.5
  9
$DIMEXO
 40
0.625
  9
$DIMDLI
 40
3.75
  9
$DIMRND
 40
0.0
  9
$DIMDLE
 40
0.0
  9
$DIMEXE
 40
1.25
  9
$DIMTP
 40
0.0
  9
$DIMTM
 40
0.0
  9
$DIMTXT
 40
2.5
  9
$DIMCEN
 40
2.5
  9
$DIMTSZ
 40
0.0
  9
$DIMTOL
 70
     0
  9
$DIMLIM
 70
     0
  9
$DIMTIH
 70
     0
  9
$DIMTOH
 70
     0
  9
$DIMSE1
 70
     0
  9
$DIMSE2
 70
     0
  9
$DIMTAD
 70
     1
  9
$DIMZIN
 70
     8
  9
$DIMBLK
  1

  9
$DIMASO
 70
     1
  9
$DIMSHO
 70
     1
  9
$DIMPOST
  1

  9
$DIMAPOST
  1

  9
$DIMALT
 70
     0
  9
$DIMALTD
 70
     3
  9
$DIMALTF
 40
0.0393700787
  9
$DIMLFAC
 40
1.0
  9
$DIMTOFL
 70
     1
  9
$DIMTVP
 40
0.0
  9
$DIMTIX
 70
     0
  9
$DIMSOXD
 70
     0
  9
$DIMSAH
 70
     0
  9
$DIMBLK1
  1

  9
$DIMBLK2
  1

  9
$DIMSTYLE
  2
ISO-25
  9
$DIMCLRD
 70
     0
  9
$DIMCLRE
 70
     0
  9
$DIMCLRT
 70
     0
  9
$DIMTFAC
 40
1.0
  9
$DIMGAP
 40
0.625
  9
$DIMJUST
 70
     0
  9
$DIMSD1
 70
     0
  9
$DIMSD2
 70
     0
  9
$DIMTOLJ
 70
     0
  9
$DIMTZIN
 70
     8
  9
$DIMALTZ
 70
     0
  9
$DIMALTTZ
 70
     0
  9
$DIMUPT
 70
     0
  9
$DIMDEC
 70
     2
  9
$DIMTDEC
 70
     2
  9
$DIMALTU
 70
     2
  9
$DIMALTTD
 70
     3
  9
$DIMTXSTY
  7
Standard
  9
$DIMAUNIT
 70
     0
  9
$DIMADEC
 70
     0
  9
$DIMALTRND
 40
0.0
  9
$DIMAZIN
 70
     0
  9
$DIMDSEP
 70
    44
  9
$DIMATFIT
 70
     3
  9
$DIMFRAC
 70
     0
  9
$DIMLDRBLK
  1

  9
$DIMLUNIT
 70
     2
  9
$DIMLWD
 70
    -2
  9
$DIMLWE
 70
    -2
  9
$DIMTMOVE
 70
     0
  9
$LUNITS
 70
     2
  9
$LUPREC
 70
     4
  9
$SKETCHINC
 40
1.0
  9
$FILLETRAD
 40
10.0
  9
$AUNITS
 70
     0
  9
$AUPREC
 70
     0
  9
$MENU
  1
.
  9
$ELEVATION
 40
0.0
  9
$PELEVATION
 40
0.0
  9
$THICKNESS
 40
0.0
  9
$LIMCHECK
 70
     0
  9
$CHAMFERA
 40
10.0
  9
$CHAMFERB
 40
10.0
  9
$CHAMFERC
 40
20.0
  9
$CHAMFERD
 40
0.0
  9
$SKPOLY
 70
     0
  9
$TDCREATE
 40
2457071.496600011
  9
$TDUCREATE
 40
2457071.454933345
  9
$TDUPDATE
 40
2457071.496602535
  9
$TDUUPDATE
 40
2457071.454935868
  9
$TDINDWG
 40
0.0000000116
  9
$TDUSRTIMER
 40
0.0000000116
  9
$USRTIMER
 70
     1
  9
$ANGBASE
 50
0.0
  9
$ANGDIR
 70
     0
  9
$PDMODE
 70
     0
  9
$PDSIZE
 40
0.0
  9
$PLINEWID
 40
0.0
  9
$SPLFRAME
 70
     0
  9
$SPLINETYPE
 70
     6
  9
$SPLINESEGS
 70
     8
  9
$HANDSEED
  5
1B0
  9
$SURFTAB1
 70
     6
  9
$SURFTAB2
 70
     6
  9
$SURFTYPE
 70
     6
  9
$SURFU
 70
     6
  9
$SURFV
 70
     6
  9
$UCSBASE
  2

  9
$UCSNAME
  2

  9
$UCSORG
 10
0.0
 20
0.0
 30
0.0
  9
$UCSXDIR
 10
1.0
 20
0.0
 30
0.0
  9
$UCSYDIR
 10
0.0
 20
1.0
 30
0.0
  9
$UCSORTHOREF
  2

  9
$UCSORTHOVIEW
 70
     0
  9
$UCSORGTOP
 10
0.0
 20
0.0
 30
0.0
  9
$UCSORGBOTTOM
 10
0.0
 20
0.0
 30
0.0
  9
$UCSORGLEFT
 10
0.0
 20
0.0
 30
0.0
  9
$UCSORGRIGHT
 10
0.0
 20
0.0
 30
0.0
  9
$UCSORGFRONT
 10
0.0
 20
0.0
 30
0.0
  9
$UCSORGBACK
 10
0.0
 20
0.0
 30
0.0
  9
$PUCSBASE
  2

  9
$PUCSNAME
  2

  9
$PUCSORG
 10
0.0
 20
0.0
 30
0.0
  9
$PUCSXDIR
 10
1.0
 20
0.0
 30
0.0
  9
$PUCSYDIR
 10
0.0
 20
1.0
 30
0.0
  9
$PUCSORTHOREF
  2

  9
$PUCSORTHOVIEW
 70
     0
  9
$PUCSORGTOP
 10
0.0
 20
0.0
 30
0.0
  9
$PUCSORGBOTTOM
 10
0.0
 20
0.0
 30
0.0
  9
$PUCSORGLEFT
 10
0.0
 20
0.0
 30
0.0
  9
$PUCSORGRIGHT
 10
0.0
 20
0.0
 30
0.0
  9
$PUCSORGFRONT
 10
0.0
 20
0.0
 30
0.0
  9
$PUCSORGBACK
 10
0.0
 20
0.0
 30
0.0
  9
$USERI1
 70
     0
  9
$USERI2
 70
     0
  9
$USERI3
 70
     0
  9
$USERI4
 70
     0
  9
$USERI5
 70
     0
  9
$USERR1
 40
0.0
  9
$USERR2
 40
0.0
  9
$USERR3
 40
0.0
  9
$USERR4
 40
0.0
  9
$USERR5
 40
0.0
  9
$WORLDVIEW
 70
     1
  9
$SHADEDGE
 70
     3
  9
$SHADEDIF
 70
    70
  9
$TILEMODE
 70
     1
  9
$MAXACTVP
 70
    64
  9
$PINSBASE
 10
0.0
 20
0.0
 30
0.0
  9
$PLIMCHECK
 70
     0
  9
$PEXTMIN
 10
0.0
 20
0.0
 30
0.0
  9
$PEXTMAX
 10
297.0
 20
210.0
 30
0.0
  9
$PLIMMIN
 10
0.0
 20
0.0
  9
$PLIMMAX
 10
297.0
 20
210.0
  9
$UNITMODE
 70
     0
  9
$VISRETAIN
 70
     1
  9
$PLINEGEN
 70
     0
  9
$PSLTSCALE
 70
     1
  9
$TREEDEPTH
 70
  3020
  9
$CMLSTYLE
  2
Standard
  9
$CMLJUST
 70
     0
  9
$CMLSCALE
 40
20.0
  9
$PROXYGRAPHICS
 70
     1
  9
$MEASUREMENT
 70
     1
  9
$CELWEIGHT
370
    -1
  9
$ENDCAPS
280
     0
  9
$JOINSTYLE
280
     0
  9
$LWDISPLAY
290
     0
  9
$INSUNITS
 70
     4
  9
$HYPERLINKBASE
  1

  9
$STYLESHEET
  1

  9
$XEDIT
290
     1
  9
$CEPSNTYPE
380
     0
  9
$PSTYLEMODE
290
     1
  9
$FINGERPRINTGUID
  2
{FD169DCB-A7F4-4272-95B0-952ACE99D2F1}
  9
$VERSIONGUID
  2
{FAEB1C32-E019-11D5-929B-00C0DF256EC4}
  9
$EXTNAMES
290
     1
  9
$PSVPSCALE
 40
0.0
  9
$OLESTARTUP
290
     0
  0
ENDSEC
  0
SECTION
  2
CLASSES
  0
CLASS
  1
ACDBDICTIONARYWDFLT
  2
AcDbDictionaryWithDefault
  3
ObjectDBX Classes
 90
        0
280
     0
281
     0
  0
CLASS
  1
VISUALSTYLE
  2
AcDbVisualStyle
  3
ObjectDBX Classes
 90
     4095
280
     0
281
     0
  0
CLASS
  1
MATERIAL
  2
AcDbMaterial
  3
ObjectDBX Classes
 90
     1153
280
     0
281
     0
  0
CLASS
  1
DICTIONARYVAR
  2
AcDbDictionaryVar
  3
ObjectDBX Classes
 90
        0
280
     0
281
     0
  0
CLASS
  1
ACDBPLACEHOLDER
  2
AcDbPlaceHolder
  3
ObjectDBX Classes
 90
        0
280
     0
281
     0
  0
CLASS
  1
LAYOUT
  2
AcDbLayout
  3
ObjectDBX Classes
 90
        0
280
     0
281
     0
  0
ENDSEC
  0
SECTION
  2
TABLES
  0
TABLE
  2
VPORT
  5
8
330
0
100
AcDbSymbolTable
 70
     1
  0
VPORT
  5
29
330
8
100
AcDbSymbolTableRecord
100
AcDbViewportTableRecord
  2
*Active
 70
     0
 10
0.0
 20
0.0
 11
1.0
 21
1.0
 12
344.1869158879
 22
148.5
 13
0.0
 23
0.0
 14
10.0
 24
10.0
 15
10.0
 25
10.0
 16
0.0
 26
0.0
 36
1.0
 17
0.0
 27
0.0
 37
0.0
 40
297.0
 41
1.9729729729
 42
50.0
 43
0.0
 44
0.0
 50
0.0
 51
0.0
 71
     0
 72
   100
 73
     1
 74
     3
 75
     0
 76
     0
 77
     0
 78
     0
281
     0
 65
     1
110
0.0
120
0.0
130
0.0
111
1.0
121
0.0
131
0.0
112
0.0
122
1.0
132
0.0
 79
     0
146
0.0
  0
ENDTAB
  0
TABLE
  2
LTYPE
  5
5
330
0
100
AcDbSymbolTable
 70
     1
  0
LTYPE
  5
14
330
5
100
AcDbSymbolTableRecord
100
AcDbLinetypeTableRecord
  2
ByBlock
 70
     0
  3

 72
    65
 73
     0
 40
0.0
  0
LTYPE
  5
15
330
5
100
AcDbSymbolTableRecord
100
AcDbLinetypeTableRecord
  2
ByLayer
 70
     0
  3

 72
    65
 73
     0
 40
0.0
  0
LTYPE
  5
16
330
5
100
AcDbSymbolTableRecord
100
AcDbLinetypeTableRecord
  2
Continuous
 70
     0
  3
Solid line
 72
    65
 73
     0
 40
0.0
  0
ENDTAB
  0
TABLE
  2
LAYER
  5
2
330
0
100
AcDbSymbolTable
 70
     4
  0
LAYER
  5
10
330
2
100
AcDbSymbolTableRecord
100
AcDbLayerTableRecord
  2
0
 70
     0
 62
     7
  6
Continuous
370
    -3
390
F
  0
LAYER
  5
41
330
2
100
AcDbSymbolTableRecord
100
AcDbLayerTableRecord
  2
Predefinito
 70
     0
 62
     7
  6
Continuous
370
    -3
390
F
  0
LAYER
  5
45
330
2
100
AcDbSymbolTableRecord
100
AcDbLayerTableRecord
  2
DV1_Livello_1
 70
     0
 62
     7
  6
Continuous
370
    -3
390
F
  0
LAYER
  5
104
330
2
100
AcDbSymbolTableRecord
100
AcDbLayerTableRecord
  2
DV1_Predefinito
 70
     0
 62
     7
  6
Continuous
370
    -3
390
F
  0
ENDTAB
  0
TABLE
  2
STYLE
  5
3
330
0
100
AcDbSymbolTable
 70
     3
  0
STYLE
  5
11
330
3
100
AcDbSymbolTableRecord
100
AcDbTextStyleTableRecord
  2
Standard
 70
     0
 40
0.0
 41
1.0
 50
0.0
 71
     0
 42
2.5
  3
txt
  4

  0
STYLE
  5
3F
330
3
100
AcDbSymbolTableRecord
100
AcDbTextStyleTableRecord
  2
SEACAD_arial_ttf
 70
     0
 40
0.0
 41
1.0
 50
0.0
 71
     0
 42
0.2
  3

  4

1001
ACAD
1000
arial.ttf
1071
        0
  0
STYLE
  5
156
330
3
100
AcDbSymbolTableRecord
100
AcDbTextStyleTableRecord
  2
SEACAD_Solid_Edge_ANSI1_Symbols
 70
     0
 40
0.0
 41
1.0
 50
0.0
 71
     0
 42
0.2
  3
semeca1.ttf
  4

1001
ACAD
1000
Solid Edge ANSI1 Symbols
1071
        0
  0
ENDTAB
  0
TABLE
  2
VIEW
  5
6
330
0
100
AcDbSymbolTable
 70
     0
  0
ENDTAB
  0
TABLE
  2
UCS
  5
7
330
0
100
AcDbSymbolTable
 70
     0
  0
ENDTAB
  0
TABLE
  2
APPID
  5
9
330
0
100
AcDbSymbolTable
 70
     1
  0
APPID
  5
12
330
9
100
AcDbSymbolTableRecord
100
AcDbRegAppTableRecord
  2
ACAD
 70
     0
  0
ENDTAB
  0
TABLE
  2
DIMSTYLE
  5
A
330
0
100
AcDbSymbolTable
 70
     1
100
AcDbDimStyleTable
  0
DIMSTYLE
105
27
330
A
100
AcDbSymbolTableRecord
100
AcDbDimStyleTableRecord
  2
ISO-25
 70
     0
 41
2.5
 42
0.625
 43
3.75
 44
1.25
 73
     0
 74
     0
 77
     1
 78
     8
140
2.5
141
2.5
143
0.0393700787
147
0.625
171
     3
172
     1
178
     0
271
     2
272
     2
274
     3
278
    44
283
     0
284
     8
340
11
  0
ENDTAB
  0
TABLE
  2
BLOCK_RECORD
  5
1
330
0
100
AcDbSymbolTable
 70
    13
  0
BLOCK_RECORD
  5
1F
330
1
100
AcDbSymbolTableRecord
100
AcDbBlockTableRecord
  2
*Model_Space
340
22
  0
BLOCK_RECORD
  5
1B
330
1
100
AcDbSymbolTableRecord
100
AcDbBlockTableRecord
  2
*Paper_Space
340
1E
  0
BLOCK_RECORD
  5
10A
330
1
100
AcDbSymbolTableRecord
100
AcDbBlockTableRecord
  2
GDimGGroup
340
0
102
{BLKREFS
331
10B
102
}
  0
BLOCK_RECORD
  5
114
330
1
100
AcDbSymbolTableRecord
100
AcDbBlockTableRecord
  2
GDimGGroup1
340
0
102
{BLKREFS
331
115
102
}
  0
BLOCK_RECORD
  5
11E
330
1
100
AcDbSymbolTableRecord
100
AcDbBlockTableRecord
  2
GDimGGroup2
340
0
102
{BLKREFS
331
11F
102
}
  0
BLOCK_RECORD
  5
128
330
1
100
AcDbSymbolTableRecord
100
AcDbBlockTableRecord
  2
GDimGGroup3
340
0
102
{BLKREFS
331
129
102
}
  0
BLOCK_RECORD
  5
132
330
1
100
AcDbSymbolTableRecord
100
AcDbBlockTableRecord
  2
GDimGGroup4
340
0
102
{BLKREFS
331
133
102
}
  0
BLOCK_RECORD
  5
13C
330
1
100
AcDbSymbolTableRecord
100
AcDbBlockTableRecord
  2
GDimGGroup5
340
0
102
{BLKREFS
331
13D
102
}
  0
BLOCK_RECORD
  5
146
330
1
100
AcDbSymbolTableRecord
100
AcDbBlockTableRecord
  2
GDimGGroup6
340
0
102
{BLKREFS
331
147
102
}
  0
BLOCK_RECORD
  5
150
330
1
100
AcDbSymbolTableRecord
100
AcDbBlockTableRecord
  2
GDimGGroup7
340
0
102
{BLKREFS
331
151
102
}
  0
BLOCK_RECORD
  5
15B
330
1
100
AcDbSymbolTableRecord
100
AcDbBlockTableRecord
  2
GDimGGroup8
340
0
102
{BLKREFS
331
15C
102
}
  0
BLOCK_RECORD
  5
165
330
1
100
AcDbSymbolTableRecord
100
AcDbBlockTableRecord
  2
GDimGGroup9
340
0
102
{BLKREFS
331
166
102
}
  0
BLOCK_RECORD
  5
16F
330
1
100
AcDbSymbolTableRecord
100
AcDbBlockTableRecord
  2
GDimGGroup10
340
0
102
{BLKREFS
331
170
102
}
  0
BLOCK_RECORD
  5
179
330
1
100
AcDbSymbolTableRecord
100
AcDbBlockTableRecord
  2
GDimGGroup11
340
0
102
{BLKREFS
331
17A
102
}
  0
ENDTAB
  0
ENDSEC
  0
SECTION
  2
BLOCKS
  0
BLOCK
  5
20
330
1F
100
AcDbEntity
  8
0
100
AcDbBlockBegin
  2
*Model_Space
 70
     0
 10
0.0
 20
0.0
 30
0.0
  3
*Model_Space
  1

  0
ENDBLK
  5
21
330
1F
100
AcDbEntity
  8
0
100
AcDbBlockEnd
  0
BLOCK
  5
1C
330
1B
100
AcDbEntity
 67
     1
  8
0
100
AcDbBlockBegin
  2
*Paper_Space
 70
     0
 10
0.0
 20
0.0
 30
0.0
  3
*Paper_Space
  1

  0
ENDBLK
  5
1D
330
1B
100
AcDbEntity
 67
     1
  8
0
100
AcDbBlockEnd
  0
BLOCK
  5
112
330
10A
100
AcDbEntity
  8
0
100
AcDbBlockBegin
  2
GDimGGroup
 70
     0
 10
0.0
 20
0.0
 30
0.0
  3
GDimGGroup
  1

  0
HATCH
  5
10C
330
10A
100
AcDbEntity
  8
Predefinito
  6
Continuous
 62
     7
100
AcDbHatch
 10
0.0
 20
0.0
 30
0.0
210
0.0
220
0.0
230
1.0
  2
SOLID
 70
     1
 71
     0
 91
        1
 92
        1
 93
        3
 72
     1
 10
4481.236744929812
 20
-2241.831776788196
 11
4433.236744512579
 21
-2249.831776857734
 72
     1
 10
4433.236744512579
 20
-2249.831776857734
 11
4481.236744929812
 21
-2257.831776927273
 72
     1
 10
4481.236744929812
 20
-2257.831776927273
 11
4481.236744929812
 21
-2241.831776788196
 97
        0
 75
     0
 76
     1
 98
        0
  0
HATCH
  5
10D
330
10A
100
AcDbEntity
  8
Predefinito
  6
Continuous
 62
     7
100
AcDbHatch
 10
0.0
 20
0.0
 30
0.0
210
0.0
220
0.0
230
1.0
  2
SOLID
 70
     1
 71
     0
 91
        1
 92
        1
 93
        3
 72
     1
 10
4805.296812464258
 20
-2241.831776788196
 11
4805.296812464258
 21
-2257.831776927273
 72
     1
 10
4805.296812464258
 20
-2257.831776927273
 11
4853.296812881491
 21
-2249.831776857734
 72
     1
 10
4853.296812881491
 20
-2249.831776857734
 11
4805.296812464258
 21
-2241.831776788196
 97
        0
 75
     0
 76
     1
 98
        0
  0
LINE
  5
10E
330
10A
100
AcDbEntity
  8
Predefinito
  6
Continuous
 62
     7
100
AcDbLine
 10
4433.2367445126
 20
-2327.1367175285
 30
0.0
 11
4433.2367445126
 21
-2241.8317764778
 31
0.0
  0
LINE
  5
10F
330
10A
100
AcDbEntity
  8
Predefinito
  6
Continuous
 62
     7
100
AcDbLine
 10
4853.2968193126
 20
-2327.1367175285
 30
0.0
 11
4853.2968193126
 21
-2241.8317764778
 31
0.0
  0
LINE
  5
110
330
10A
100
AcDbEntity
  8
Predefinito
  6
Continuous
 62
     7
100
AcDbLine
 10
4433.2367445126
 20
-2249.8317768577
 30
0.0
 11
4853.2968128815
 21
-2249.8317768577
 31
0.0
  0
TEXT
  5
111
330
10A
100
AcDbEntity
  8
Predefinito
  6
Continuous
 62
     7
100
AcDbText
 10
4596.3102569579
 20
-2235.8317768577
 30
0.0
 40
40.0
  1
420
  7
SEACAD_arial_ttf
 11
4596.3102569579
 21
-2195.8317768577
 31
0.0
100
AcDbText
 73
     3
  0
ENDBLK
  5
113
330
10A
100
AcDbEntity
  8
0
100
AcDbBlockEnd
  0
BLOCK
  5
11C
330
114
100
AcDbEntity
  8
0
100
AcDbBlockBegin
  2
GDimGGroup1
 70
     0
 10
0.0
 20
0.0
 30
0.0
  3
GDimGGroup1
  1

  0
HATCH
  5
116
330
114
100
AcDbEntity
  8
Predefinito
  6
Continuous
 62
     7
100
AcDbHatch
 10
0.0
 20
0.0
 30
0.0
210
0.0
220
0.0
230
1.0
  2
SOLID
 70
     1
 71
     0
 91
        1
 92
        1
 93
        3
 72
     1
 10
4994.347499542641
 20
-2395.136717498661
 11
4986.347499473102
 21
-2347.136717081428
 72
     1
 10
4986.347499473102
 20
-2347.136717081428
 11
4978.347499403563
 21
-2395.136717498661
 72
     1
 10
4978.347499403563
 20
-2395.136717498661
 11
4994.347499542641
 21
-2395.136717498661
 97
        0
 75
     0
 76
     1
 98
        0
  0
HATCH
  5
117
330
114
100
AcDbEntity
  8
Predefinito
  6
Continuous
 62
     7
100
AcDbHatch
 10
0.0
 20
0.0
 30
0.0
210
0.0
220
0.0
230
1.0
  2
SOLID
 70
     1
 71
     0
 91
        1
 92
        1
 93
        3
 72
     1
 10
4994.347499542641
 20
-2907.880801499248
 11
4978.347499403563
 21
-2907.880801499248
 72
     1
 10
4978.347499403563
 20
-2907.880801499248
 11
4986.347499473102
 21
-2955.880801916481
 72
     1
 10
4986.347499473102
 20
-2955.880801916481
 11
4994.347499542641
 21
-2907.880801499248
 97
        0
 75
     0
 76
     1
 98
        0
  0
LINE
  5
118
330
114
100
AcDbEntity
  8
Predefinito
  6
Continuous
 62
     7
100
AcDbLine
 10
4873.2968188655
 20
-2347.1367170814
 30
0.0
 11
4994.3474998531
 21
-2347.1367170814
 31
0.0
  0
LINE
  5
119
330
114
100
AcDbEntity
  8
Predefinito
  6
Continuous
 62
     7
100
AcDbLine
 10
4886.1187724655
 20
-2955.8807897814
 30
0.0
 11
4994.3474998531
 21
-2955.8807897814
 31
0.0
  0
LINE
  5
11A
330
114
100
AcDbEntity
  8
Predefinito
  6
Continuous
 62
     7
100
AcDbLine
 10
4986.3474994731
 20
-2347.1367170814
 30
0.0
 11
4986.3474994731
 21
-2955.8808019165
 31
0.0
  0
TEXT
  5
11B
330
114
100
AcDbEntity
  8
Predefinito
  6
Continuous
 62
     7
100
AcDbText
 10
4972.3474994731
 20
-2724.1174551511
 30
0.0
 40
40.0
  1
  520
 50
90.0
  7
SEACAD_arial_ttf
 11
4932.3474994731
 21
-2724.1174551511
 31
0.0
100
AcDbText
 73
     3
  0
ENDBLK
  5
11D
330
114
100
AcDbEntity
  8
0
100
AcDbBlockEnd
  0
BLOCK
  5
126
330
11E
100
AcDbEntity
  8
0
100
AcDbBlockBegin
  2
GDimGGroup2
 70
     0
 10
0.0
 20
0.0
 30
0.0
  3
GDimGGroup2
  1

  0
HATCH
  5
120
330
11E
100
AcDbEntity
  8
Predefinito
  6
Continuous
 62
     7
100
AcDbHatch
 10
0.0
 20
0.0
 30
0.0
210
0.0
220
0.0
230
1.0
  2
SOLID
 70
     1
 71
     0
 91
        1
 92
        1
 93
        3
 72
     1
 10
4507.068043129812
 20
-3042.569642452002
 11
4507.068043129812
 21
-3026.569642312924
 72
     1
 10
4507.068043129812
 20
-3026.569642312924
 11
4459.06804271258
 21
-3034.569642382463
 72
     1
 10
4459.06804271258
 20
-3034.569642382463
 11
4507.068043129812
 21
-3042.569642452002
 97
        0
 75
     0
 76
     1
 98
        0
  0
HATCH
  5
121
330
11E
100
AcDbEntity
  8
Predefinito
  6
Continuous
 62
     7
100
AcDbHatch
 10
0.0
 20
0.0
 30
0.0
210
0.0
220
0.0
230
1.0
  2
SOLID
 70
     1
 71
     0
 91
        1
 92
        1
 93
        3
 72
     1
 10
4710.952063577543
 20
-3042.569642452002
 11
4758.952063994776
 21
-3034.569642382463
 72
     1
 10
4758.952063994776
 20
-3034.569642382463
 11
4710.952063577543
 21
-3026.569642312924
 72
     1
 10
4710.952063577543
 20
-3026.569642312924
 11
4710.952063577543
 21
-3042.569642452002
 97
        0
 75
     0
 76
     1
 98
        0
  0
LINE
  5
122
330
11E
100
AcDbEntity
  8
Predefinito
  6
Continuous
 62
     7
100
AcDbLine
 10
4459.0680427126
 20
-2782.2485667344
 30
0.0
 11
4459.0680427126
 21
-3042.5696427624
 31
0.0
  0
LINE
  5
123
330
11E
100
AcDbEntity
  8
Predefinito
  6
Continuous
 62
     7
100
AcDbLine
 10
4758.9520646126
 20
-2762.2781976344
 30
0.0
 11
4758.9520646126
 21
-3042.5696427624
 31
0.0
  0
LINE
  5
124
330
11E
100
AcDbEntity
  8
Predefinito
  6
Continuous
 62
     7
100
AcDbLine
 10
4459.0680427126
 20
-3034.5696423825
 30
0.0
 11
4758.9520639948
 21
-3034.5696423825
 31
0.0
  0
TEXT
  5
125
330
11E
100
AcDbEntity
  8
Predefinito
  6
Continuous
 62
     7
100
AcDbText
 10
4562.0535316145
 20
-3020.5696423825
 30
0.0
 40
40.0
  1
300
  7
SEACAD_arial_ttf
 11
4562.0535316145
 21
-2980.5696423825
 31
0.0
100
AcDbText
 73
     3
  0
ENDBLK
  5
127
330
11E
100
AcDbEntity
  8
0
100
AcDbBlockEnd
  0
BLOCK
  5
130
330
128
100
AcDbEntity
  8
0
100
AcDbBlockBegin
  2
GDimGGroup3
 70
     0
 10
0.0
 20
0.0
 30
0.0
  3
GDimGGroup3
  1

  0
HATCH
  5
12A
330
128
100
AcDbEntity
  8
Predefinito
  6
Continuous
 62
     7
100
AcDbHatch
 10
0.0
 20
0.0
 30
0.0
210
0.0
220
0.0
230
1.0
  2
SOLID
 70
     1
 71
     0
 91
        1
 92
        1
 93
        3
 72
     1
 10
4323.892769474636
 20
-2313.846501698661
 11
4315.892769405097
 21
-2265.846501281429
 72
     1
 10
4315.892769405097
 20
-2265.846501281429
 11
4307.892769335558
 21
-2313.846501698661
 72
     1
 10
4307.892769335558
 20
-2313.846501698661
 11
4323.892769474636
 21
-2313.846501698661
 97
        0
 75
     0
 76
     1
 98
        0
  0
HATCH
  5
12B
330
128
100
AcDbEntity
  8
Predefinito
  6
Continuous
 62
     7
100
AcDbHatch
 10
0.0
 20
0.0
 30
0.0
210
0.0
220
0.0
230
1.0
  2
SOLID
 70
     1
 71
     0
 91
        1
 92
        1
 93
        3
 72
     1
 10
4323.892769474636
 20
-2906.612026682067
 11
4307.892769335558
 21
-2906.612026682067
 72
     1
 10
4307.892769335558
 20
-2906.612026682067
 11
4315.892769405097
 21
-2954.6120270993
 72
     1
 10
4315.892769405097
 20
-2954.6120270993
 11
4323.892769474636
 21
-2906.612026682067
 97
        0
 75
     0
 76
     1
 98
        0
  0
LINE
  5
12C
330
128
100
AcDbEntity
  8
Predefinito
  6
Continuous
 62
     7
100
AcDbLine
 10
3929.9418650655
 20
-2265.8465012814
 30
0.0
 11
4323.8927697851
 21
-2265.8465012814
 31
0.0
  0
LINE
  5
12D
330
128
100
AcDbEntity
  8
Predefinito
  6
Continuous
 62
     7
100
AcDbLine
 10
4032.1294842655
 20
-2954.6120424814
 30
0.0
 11
4323.8927697851
 21
-2954.6120424814
 31
0.0
  0
LINE
  5
12E
330
128
100
AcDbEntity
  8
Predefinito
  6
Continuous
 62
     7
100
AcDbLine
 10
4315.8927694051
 20
-2265.8465012814
 30
0.0
 11
4315.8927694051
 21
-2954.6120270993
 31
0.0
  0
TEXT
  5
12F
330
128
100
AcDbEntity
  8
Predefinito
  6
Continuous
 62
     7
100
AcDbText
 10
4301.8927694051
 20
-2682.8379598425
 30
0.0
 40
40.0
  1
  650
 50
90.0
  7
SEACAD_arial_ttf
 11
4261.8927694051
 21
-2682.8379598425
 31
0.0
100
AcDbText
 73
     3
  0
ENDBLK
  5
131
330
128
100
AcDbEntity
  8
0
100
AcDbBlockEnd
  0
BLOCK
  5
13A
330
132
100
AcDbEntity
  8
0
100
AcDbBlockBegin
  2
GDimGGroup4
 70
     0
 10
0.0
 20
0.0
 30
0.0
  3
GDimGGroup4
  1

  0
HATCH
  5
134
330
132
100
AcDbEntity
  8
Predefinito
  6
Continuous
 62
     7
100
AcDbHatch
 10
0.0
 20
0.0
 30
0.0
210
0.0
220
0.0
230
1.0
  2
SOLID
 70
     1
 71
     0
 91
        1
 92
        1
 93
        3
 72
     1
 10
3010.154995054565
 20
-2613.920119198661
 11
3026.154995193643
 21
-2613.920119198661
 72
     1
 10
3026.154995193643
 20
-2613.920119198661
 11
3018.154995124104
 21
-2565.920118781428
 72
     1
 10
3018.154995124104
 20
-2565.920118781428
 11
3010.154995054565
 21
-2613.920119198661
 97
        0
 75
     0
 76
     1
 98
        0
  0
HATCH
  5
135
330
132
100
AcDbEntity
  8
Predefinito
  6
Continuous
 62
     7
100
AcDbHatch
 10
0.0
 20
0.0
 30
0.0
210
0.0
220
0.0
230
1.0
  2
SOLID
 70
     1
 71
     0
 91
        1
 92
        1
 93
        3
 72
     1
 10
3010.154995054565
 20
-3011.499208005767
 11
3018.154995124104
 21
-3059.499208422999
 72
     1
 10
3018.154995124104
 20
-3059.499208422999
 11
3026.154995193643
 21
-3011.499208005767
 72
     1
 10
3026.154995193643
 20
-3011.499208005767
 11
3010.154995054565
 21
-3011.499208005767
 97
        0
 75
     0
 76
     1
 98
        0
  0
LINE
  5
136
330
132
100
AcDbEntity
  8
Predefinito
  6
Continuous
 62
     7
100
AcDbLine
 10
3110.4261703596
 20
-2565.9201187814
 30
0.0
 11
3010.1549947441
 21
-2565.9201187814
 31
0.0
  0
LINE
  5
137
330
132
100
AcDbEntity
  8
Predefinito
  6
Continuous
 62
     7
100
AcDbLine
 10
3117.4797880596
 20
-3059.4991943814
 30
0.0
 11
3010.1549947441
 21
-3059.4991943814
 31
0.0
  0
LINE
  5
138
330
132
100
AcDbEntity
  8
Predefinito
  6
Continuous
 62
     7
100
AcDbLine
 10
3018.1549951241
 20
-2565.9201187814
 30
0.0
 11
3018.1549951241
 21
-3059.499208423
 31
0.0
  0
TEXT
  5
139
330
132
100
AcDbEntity
  8
Predefinito
  6
Continuous
 62
     7
100
AcDbText
 10
3004.1549951241
 20
-2885.3183592544
 30
0.0
 40
40.0
  1
  450
 50
90.0
  7
SEACAD_arial_ttf
 11
2964.1549951241
 21
-2885.3183592544
 31
0.0
100
AcDbText
 73
     3
  0
ENDBLK
  5
13B
330
132
100
AcDbEntity
  8
0
100
AcDbBlockEnd
  0
BLOCK
  5
144
330
13C
100
AcDbEntity
  8
0
100
AcDbBlockBegin
  2
GDimGGroup5
 70
     0
 10
0.0
 20
0.0
 30
0.0
  3
GDimGGroup5
  1

  0
HATCH
  5
13E
330
13C
100
AcDbEntity
  8
Predefinito
  6
Continuous
 62
     7
100
AcDbHatch
 10
0.0
 20
0.0
 30
0.0
210
0.0
220
0.0
230
1.0
  2
SOLID
 70
     1
 71
     0
 91
        1
 92
        1
 93
        3
 72
     1
 10
3178.426170329812
 20
-2438.419347546996
 11
3130.426169912579
 21
-2446.419347616534
 72
     1
 10
3130.426169912579
 20
-2446.419347616534
 11
3178.426170329812
 21
-2454.419347686073
 72
     1
 10
3178.426170329812
 20
-2454.419347686073
 11
3178.426170329812
 21
-2438.419347546996
 97
        0
 75
     0
 76
     1
 98
        0
  0
HATCH
  5
13F
330
13C
100
AcDbEntity
  8
Predefinito
  6
Continuous
 62
     7
100
AcDbHatch
 10
0.0
 20
0.0
 30
0.0
210
0.0
220
0.0
230
1.0
  2
SOLID
 70
     1
 71
     0
 91
        1
 92
        1
 93
        3
 72
     1
 10
3474.988260845902
 20
-2438.419347546996
 11
3474.988260845902
 21
-2454.419347686073
 72
     1
 10
3474.988260845902
 20
-2454.419347686073
 11
3522.988261263135
 21
-2446.419347616534
 72
     1
 10
3522.988261263135
 20
-2446.419347616534
 11
3474.988260845902
 21
-2438.419347546996
 97
        0
 75
     0
 76
     1
 98
        0
  0
LINE
  5
140
330
13C
100
AcDbEntity
  8
Predefinito
  6
Continuous
 62
     7
100
AcDbLine
 10
3130.4261699126
 20
-2545.9201192285
 30
0.0
 11
3130.4261699126
 21
-2438.4193472366
 31
0.0
  0
LINE
  5
141
330
13C
100
AcDbEntity
  8
Predefinito
  6
Continuous
 62
     7
100
AcDbLine
 10
3522.9882689126
 20
-2545.9201192285
 30
0.0
 11
3522.9882689126
 21
-2438.4193472366
 31
0.0
  0
LINE
  5
142
330
13C
100
AcDbEntity
  8
Predefinito
  6
Continuous
 62
     7
100
AcDbLine
 10
3130.4261699126
 20
-2446.4193476165
 30
0.0
 11
3522.9882612631
 21
-2446.4193476165
 31
0.0
  0
TEXT
  5
143
330
13C
100
AcDbEntity
  8
Predefinito
  6
Continuous
 62
     7
100
AcDbText
 10
3254.0985199357
 20
-2432.4193476165
 30
0.0
 40
40.0
  1
  420
  7
SEACAD_arial_ttf
 11
3254.0985199357
 21
-2392.4193476165
 31
0.0
100
AcDbText
 73
     3
  0
ENDBLK
  5
145
330
13C
100
AcDbEntity
  8
0
100
AcDbBlockEnd
  0
BLOCK
  5
14E
330
146
100
AcDbEntity
  8
0
100
AcDbBlockBegin
  2
GDimGGroup6
 70
     0
 10
0.0
 20
0.0
 30
0.0
  3
GDimGGroup6
  1

  0
HATCH
  5
148
330
146
100
AcDbEntity
  8
Predefinito
  6
Continuous
 62
     7
100
AcDbHatch
 10
0.0
 20
0.0
 30
0.0
210
0.0
220
0.0
230
1.0
  2
SOLID
 70
     1
 71
     0
 91
        1
 92
        1
 93
        3
 72
     1
 10
3703.271985429812
 20
-3044.271557030345
 11
3703.271985429812
 21
-3028.271556891268
 72
     1
 10
3703.271985429812
 20
-3028.271556891268
 11
3655.271985012579
 21
-3036.271556960807
 72
     1
 10
3655.271985012579
 20
-3036.271556960807
 11
3703.271985429812
 21
-3044.271557030345
 97
        0
 75
     0
 76
     1
 98
        0
  0
HATCH
  5
149
330
146
100
AcDbEntity
  8
Predefinito
  6
Continuous
 62
     7
100
AcDbHatch
 10
0.0
 20
0.0
 30
0.0
210
0.0
220
0.0
230
1.0
  2
SOLID
 70
     1
 71
     0
 91
        1
 92
        1
 93
        3
 72
     1
 10
4075.244620818186
 20
-3044.271557030345
 11
4123.244621235419
 21
-3036.271556960807
 72
     1
 10
4123.244621235418
 20
-3036.271556960807
 11
4075.244620818185
 21
-3028.271556891268
 72
     1
 10
4075.244620818186
 20
-3028.271556891268
 11
4075.244620818186
 21
-3044.271557030345
 97
        0
 75
     0
 76
     1
 98
        0
  0
LINE
  5
14A
330
146
100
AcDbEntity
  8
Predefinito
  6
Continuous
 62
     7
100
AcDbLine
 10
3655.2719850126
 20
-2852.7913575344
 30
0.0
 11
3655.2719850126
 21
-3044.2715573408
 31
0.0
  0
LINE
  5
14B
330
146
100
AcDbEntity
  8
Predefinito
  6
Continuous
 62
     7
100
AcDbLine
 10
4123.2446316126
 20
-2820.7408827344
 30
0.0
 11
4123.2446316126
 21
-3044.2715573408
 31
0.0
  0
LINE
  5
14C
330
146
100
AcDbEntity
  8
Predefinito
  6
Continuous
 62
     7
100
AcDbLine
 10
3655.2719850126
 20
-3036.2715569608
 30
0.0
 11
4123.2446212354
 21
-3036.2715569608
 31
0.0
  0
TEXT
  5
14D
330
146
100
AcDbEntity
  8
Predefinito
  6
Continuous
 62
     7
100
AcDbText
 10
3816.6496074718
 20
-3022.2715569608
 30
0.0
 40
40.0
  1
  450
  7
SEACAD_arial_ttf
 11
3816.6496074718
 21
-2982.2715569608
 31
0.0
100
AcDbText
 73
     3
  0
ENDBLK
  5
14F
330
146
100
AcDbEntity
  8
0
100
AcDbBlockEnd
  0
BLOCK
  5
159
330
150
100
AcDbEntity
  8
0
100
AcDbBlockBegin
  2
GDimGGroup7
 70
     0
 10
0.0
 20
0.0
 30
0.0
  3
GDimGGroup7
  1

  0
LINE
  5
152
330
150
100
AcDbEntity
  8
Predefinito
  6
Continuous
 62
     7
100
AcDbLine
 10
3742.1593571563
 20
-2585.0999612718
 30
0.0
 11
3879.4873655026
 21
-2628.4245326387
 31
0.0
  0
LINE
  5
153
330
150
100
AcDbEntity
  8
Predefinito
  6
Continuous
 62
     7
100
AcDbLine
 10
3879.4873651047
 20
-2628.4245325131
 30
0.0
 11
4084.0742230607
 21
-2692.968088012
 31
0.0
  0
HATCH
  5
154
330
150
100
AcDbEntity
  8
Predefinito
  6
Continuous
 62
     7
100
AcDbHatch
 10
0.0
 20
0.0
 30
0.0
210
0.0
220
0.0
230
1.0
  2
SOLID
 70
     1
 71
     0
 91
        1
 92
        1
 93
        3
 72
     1
 10
3790.342280569872
 20
-2591.912151263723
 11
3785.528439306883
 21
-2607.170818857757
 72
     1
 10
3785.528439306883
 20
-2607.170818857757
 11
3833.711362720479
 21
-2613.983008849709
 72
     1
 10
3833.711362720479
 20
-2613.983008849709
 11
3790.342280569872
 21
-2591.912151263723
 97
        0
 75
     0
 76
     1
 98
        0
  0
HATCH
  5
155
330
150
100
AcDbEntity
  8
Predefinito
  6
Continuous
 62
     7
100
AcDbHatch
 10
0.0
 20
0.0
 30
0.0
210
0.0
220
0.0
230
1.0
  2
SOLID
 70
     1
 71
     0
 91
        1
 92
        1
 93
        3
 72
     1
 10
3927.670288518275
 20
-2635.2367225051
 11
3879.487365104679
 21
-2628.424532513148
 72
     1
 10
3879.48736510468
 20
-2628.424532513148
 11
3922.856447255286
 21
-2650.495390099134
 72
     1
 10
3922.856447255286
 20
-2650.495390099134
 11
3927.670288518276
 21
-2635.2367225051
 97
        0
 75
     0
 76
     1
 98
        0
  0
TEXT
  5
157
330
150
100
AcDbEntity
  8
Predefinito
  6
Continuous
 62
     7
100
AcDbText
 10
3956.4679101703
 20
-2638.0303595904
 30
0.0
 40
40.0
  1
O
 50
342.4904309872
  7
SEACAD_Solid_Edge_ANSI1_Symbols
 11
3968.5025132231
 21
-2599.8836909369
 31
0.0
100
AcDbText
 73
     3
  0
TEXT
  5
158
330
150
100
AcDbEntity
  8
Predefinito
  6
Continuous
 62
     7
100
AcDbText
 10
4015.2271646927
 20
-2656.5678709595
 30
0.0
 40
40.0
  1
48
 50
342.4904309872
  7
SEACAD_arial_ttf
 11
4027.2617677455
 21
-2618.421202306
 31
0.0
100
AcDbText
 73
     3
  0
ENDBLK
  5
15A
330
150
100
AcDbEntity
  8
0
100
AcDbBlockEnd
  0
BLOCK
  5
163
330
15B
100
AcDbEntity
  8
0
100
AcDbBlockBegin
  2
GDimGGroup8
 70
     0
 10
0.0
 20
0.0
 30
0.0
  3
GDimGGroup8
  1

  0
LINE
  5
15D
330
15B
100
AcDbEntity
  8
Predefinito
  6
Continuous
 62
     7
100
AcDbLine
 10
3641.5613260319
 20
-2813.7585922251
 30
0.0
 11
3782.657130474
 21
-2842.5331353027
 31
0.0
  0
LINE
  5
15E
330
15B
100
AcDbEntity
  8
Predefinito
  6
Continuous
 62
     7
100
AcDbLine
 10
3782.6571300652
 20
-2842.5331352193
 30
0.0
 11
3982.5448186352
 21
-2883.2974721051
 31
0.0
  0
HATCH
  5
15F
330
15B
100
AcDbEntity
  8
Predefinito
  6
Continuous
 62
     7
100
AcDbHatch
 10
0.0
 20
0.0
 30
0.0
210
0.0
220
0.0
230
1.0
  2
SOLID
 70
     1
 71
     0
 91
        1
 92
        1
 93
        3
 72
     1
 10
3690.191846572473
 20
-2815.511450781964
 11
3686.994675119404
 21
-2831.188762386641
 72
     1
 10
3686.994675119404
 20
-2831.188762386641
 11
3735.625195659972
 21
-2832.941620943511
 72
     1
 10
3735.625195659972
 20
-2832.941620943511
 11
3690.191846572473
 21
-2815.511450781964
 97
        0
 75
     0
 76
     1
 98
        0
  0
HATCH
  5
160
330
15B
100
AcDbEntity
  8
Predefinito
  6
Continuous
 62
     7
100
AcDbHatch
 10
0.0
 20
0.0
 30
0.0
210
0.0
220
0.0
230
1.0
  2
SOLID
 70
     1
 71
     0
 91
        1
 92
        1
 93
        3
 72
     1
 10
3831.287650605754
 20
-2844.285993776216
 11
3782.657130065186
 21
-2842.533135219346
 72
     1
 10
3782.657130065187
 20
-2842.533135219346
 11
3828.090479152685
 21
-2859.963305380893
 72
     1
 10
3828.090479152685
 20
-2859.963305380893
 11
3831.287650605754
 21
-2844.285993776216
 97
        0
 75
     0
 76
     1
 98
        0
  0
TEXT
  5
161
330
15B
100
AcDbEntity
  8
Predefinito
  6
Continuous
 62
     7
100
AcDbText
 10
3849.9072871369
 20
-2841.9597129535
 30
0.0
 40
40.0
  1
O
 50
348.4733787331
  7
SEACAD_Solid_Edge_ANSI1_Symbols
 11
3857.9002157001
 21
-2802.7664342825
 31
0.0
100
AcDbText
 73
     3
  0
TEXT
  5
162
330
15B
100
AcDbEntity
  8
Predefinito
  6
Continuous
 62
     7
100
AcDbText
 10
3910.2786883179
 20
-2854.2716274771
 30
0.0
 40
40.0
  1
48
 50
348.4733787331
  7
SEACAD_arial_ttf
 11
3918.2716168811
 21
-2815.0783488061
 31
0.0
100
AcDbText
 73
     3
  0
ENDBLK
  5
164
330
15B
100
AcDbEntity
  8
0
100
AcDbBlockEnd
  0
BLOCK
  5
16D
330
165
100
AcDbEntity
  8
0
100
AcDbBlockBegin
  2
GDimGGroup9
 70
     0
 10
0.0
 20
0.0
 30
0.0
  3
GDimGGroup9
  1

  0
HATCH
  5
167
330
165
100
AcDbEntity
  8
Predefinito
  6
Continuous
 62
     7
100
AcDbHatch
 10
0.0
 20
0.0
 30
0.0
210
0.0
220
0.0
230
1.0
  2
SOLID
 70
     1
 71
     0
 91
        1
 92
        1
 93
        3
 72
     1
 10
4689.009625805796
 20
-2387.399977415786
 11
4643.8705142443
 21
-2369.221400777175
 72
     1
 10
4643.870514244301
 20
-2369.221400777175
 11
4680.673919244004
 21
-2401.057063509319
 72
     1
 10
4680.673919244004
 20
-2401.057063509319
 11
4689.009625805797
 21
-2387.399977415786
 97
        0
 75
     0
 76
     1
 98
        0
  0
HATCH
  5
168
330
165
100
AcDbEntity
  8
Predefinito
  6
Continuous
 62
     7
100
AcDbHatch
 10
0.0
 20
0.0
 30
0.0
210
0.0
220
0.0
230
1.0
  2
SOLID
 70
     1
 71
     0
 91
        1
 92
        1
 93
        3
 72
     1
 10
4755.635103002811
 20
-2428.065345097454
 11
4747.299396441018
 21
-2441.722431190987
 72
     1
 10
4747.299396441018
 20
-2441.722431190987
 11
4792.438508002513
 21
-2459.901007829598
 72
     1
 10
4792.438508002513
 20
-2459.901007829598
 11
4755.635103002811
 21
-2428.065345097454
 97
        0
 75
     0
 76
     1
 98
        0
  0
LINE
  5
169
330
165
100
AcDbEntity
  8
Predefinito
  6
Continuous
 62
     7
100
AcDbLine
 10
4609.6285860914
 20
-2425.3228190945
 30
0.0
 11
4648.0383676869
 21
-2362.3928574654
 31
0.0
  0
LINE
  5
16A
330
165
100
AcDbEntity
  8
Predefinito
  6
Continuous
 62
     7
100
AcDbLine
 10
4758.1965800914
 20
-2516.0024262945
 30
0.0
 11
4796.6063616869
 21
-2453.0724646654
 31
0.0
  0
LINE
  5
16B
330
165
100
AcDbEntity
  8
Predefinito
  6
Continuous
 62
     7
100
AcDbLine
 10
4643.8705142443
 20
-2369.2214007772
 30
0.0
 11
4792.4385080025
 21
-2459.9010078296
 31
0.0
  0
TEXT
  5
16C
330
165
100
AcDbEntity
  8
Predefinito
  6
Continuous
 62
     7
100
AcDbText
 10
4663.4718043615
 20
-2364.7834556048
 30
0.0
 40
40.0
  1
  165
 50
328.6018779262
  7
SEACAD_arial_ttf
 11
4684.3110705848
 21
-2330.6407406677
 31
0.0
100
AcDbText
 73
     3
  0
ENDBLK
  5
16E
330
165
100
AcDbEntity
  8
0
100
AcDbBlockEnd
  0
BLOCK
  5
177
330
16F
100
AcDbEntity
  8
0
100
AcDbBlockBegin
  2
GDimGGroup10
 70
     0
 10
0.0
 20
0.0
 30
0.0
  3
GDimGGroup10
  1

  0
HATCH
  5
171
330
16F
100
AcDbEntity
  8
Predefinito
  6
Continuous
 62
     7
100
AcDbHatch
 10
0.0
 20
0.0
 30
0.0
210
0.0
220
0.0
230
1.0
  2
SOLID
 70
     1
 71
     0
 91
        1
 92
        1
 93
        3
 72
     1
 10
3994.500053895347
 20
-2757.434519288082
 11
3994.500053895347
 21
-2773.43451942716
 72
     1
 10
3994.500053895347
 20
-2773.43451942716
 11
4042.50005431258
 21
-2765.434519357621
 72
     1
 10
4042.50005431258
 20
-2765.434519357621
 11
3994.500053895347
 21
-2757.434519288082
 97
        0
 75
     0
 76
     1
 98
        0
  0
HATCH
  5
172
330
16F
100
AcDbEntity
  8
Predefinito
  6
Continuous
 62
     7
100
AcDbHatch
 10
0.0
 20
0.0
 30
0.0
210
0.0
220
0.0
230
1.0
  2
SOLID
 70
     1
 71
     0
 91
        1
 92
        1
 93
        3
 72
     1
 10
4171.117867529812
 20
-2757.434519288082
 11
4123.11786711258
 21
-2765.434519357621
 72
     1
 10
4123.11786711258
 20
-2765.434519357621
 11
4171.117867529812
 21
-2773.43451942716
 72
     1
 10
4171.117867529812
 20
-2773.43451942716
 11
4171.117867529812
 21
-2757.434519288082
 97
        0
 75
     0
 76
     1
 98
        0
  0
LINE
  5
173
330
16F
100
AcDbEntity
  8
Predefinito
  6
Continuous
 62
     7
100
AcDbLine
 10
4042.5000543126
 20
-2818.4274183285
 30
0.0
 11
4042.5000543126
 21
-2757.4345189776
 31
0.0
  0
LINE
  5
174
330
16F
100
AcDbEntity
  8
Predefinito
  6
Continuous
 62
     7
100
AcDbLine
 10
4123.1178671126
 20
-2779.8623505285
 30
0.0
 11
4123.1178671126
 21
-2757.4345189776
 31
0.0
  0
LINE
  5
175
330
16F
100
AcDbEntity
  8
Predefinito
  6
Continuous
 62
     7
100
AcDbLine
 10
3946.5000534781
 20
-2765.4345193576
 30
0.0
 11
4219.1178704032
 21
-2765.4345193576
 31
0.0
  0
TEXT
  5
176
330
16F
100
AcDbEntity
  8
Predefinito
  6
Continuous
 62
     7
100
AcDbText
 10
4033.678527158
 20
-2751.4345193576
 30
0.0
 40
40.0
  1
 75
  7
SEACAD_arial_ttf
 11
4033.678527158
 21
-2711.4345193576
 31
0.0
100
AcDbText
 73
     3
  0
ENDBLK
  5
178
330
16F
100
AcDbEntity
  8
0
100
AcDbBlockEnd
  0
BLOCK
  5
181
330
179
100
AcDbEntity
  8
0
100
AcDbBlockBegin
  2
GDimGGroup11
 70
     0
 10
0.0
 20
0.0
 30
0.0
  3
GDimGGroup11
  1

  0
HATCH
  5
17B
330
179
100
AcDbEntity
  8
Predefinito
  6
Continuous
 62
     7
100
AcDbHatch
 10
0.0
 20
0.0
 30
0.0
210
0.0
220
0.0
230
1.0
  2
SOLID
 70
     1
 71
     0
 91
        1
 92
        1
 93
        3
 72
     1
 10
4245.824102782044
 20
-2790.427417464196
 11
4229.824102642966
 21
-2790.427417464196
 72
     1
 10
4229.824102642966
 20
-2790.427417464196
 11
4237.824102712505
 21
-2838.427417881428
 72
     1
 10
4237.824102712505
 20
-2838.427417881428
 11
4245.824102782044
 21
-2790.427417464196
 97
        0
 75
     0
 76
     1
 98
        0
  0
HATCH
  5
17C
330
179
100
AcDbEntity
  8
Predefinito
  6
Continuous
 62
     7
100
AcDbHatch
 10
0.0
 20
0.0
 30
0.0
210
0.0
220
0.0
230
1.0
  2
SOLID
 70
     1
 71
     0
 91
        1
 92
        1
 93
        3
 72
     1
 10
4245.824102782044
 20
-3002.612042898661
 11
4237.824102712505
 21
-2954.612042481428
 72
     1
 10
4237.824102712505
 20
-2954.612042481428
 11
4229.824102642966
 21
-3002.612042898661
 72
     1
 10
4229.824102642966
 20
-3002.612042898661
 11
4245.824102782044
 21
-3002.612042898661
 97
        0
 75
     0
 76
     1
 98
        0
  0
LINE
  5
17D
330
179
100
AcDbEntity
  8
Predefinito
  6
Continuous
 62
     7
100
AcDbLine
 10
4062.5000538655
 20
-2838.4274178814
 30
0.0
 11
4245.8241030925
 21
-2838.4274178814
 31
0.0
  0
LINE
  5
17E
330
179
100
AcDbEntity
  8
Predefinito
  6
Continuous
 62
     7
100
AcDbLine
 10
4032.1294842655
 20
-2954.6120424814
 30
0.0
 11
4245.8241030925
 21
-2954.6120424814
 31
0.0
  0
LINE
  5
17F
330
179
100
AcDbEntity
  8
Predefinito
  6
Continuous
 62
     7
100
AcDbLine
 10
4237.8241027125
 20
-2742.427417047
 30
0.0
 11
4237.8241027125
 21
-3050.6120407652
 31
0.0
  0
TEXT
  5
180
330
179
100
AcDbEntity
  8
Predefinito
  6
Continuous
 62
     7
100
AcDbText
 10
4223.8241027125
 20
-2945.6501636887
 30
0.0
 40
40.0
  1
 95
 50
90.0
  7
SEACAD_arial_ttf
 11
4183.8241027125
 21
-2945.6501636887
 31
0.0
100
AcDbText
 73
     3
  0
ENDBLK
  5
182
330
179
100
AcDbEntity
  8
0
100
AcDbBlockEnd
  0
ENDSEC
  0
SECTION
  2
ENTITIES
  0
TEXT
  5
40
330
1F
100
AcDbEntity
  8
Predefinito
  6
Continuous
 62
     7
100
AcDbText
 10
4062.7757230074
 20
-3116.4358258725
 30
0.0
 40
20.0
  1
CAVO ALIMENTAZIONE
  7
SEACAD_arial_ttf
 11
4062.7757230074
 21
-3096.4358258725
 31
0.0
100
AcDbText
 73
     3
  0
TEXT
  5
42
330
1F
100
AcDbEntity
  8
Predefinito
  6
Continuous
 62
     7
100
AcDbText
 10
4075.3844186595
 20
-3147.7401736985
 30
0.0
 40
20.0
  1
CONNECTION CABLE
  7
SEACAD_arial_ttf
 11
4075.3844186595
 21
-3127.7401736985
 31
0.0
100
AcDbText
 73
     3
  0
TEXT
  5
43
330
1F
100
AcDbEntity
  8
Predefinito
  6
Continuous
 62
     7
100
AcDbText
 10
4136.0365925726
 20
-3179.0445215246
 30
0.0
 40
20.0
  1
L = 1500 mm
  7
SEACAD_arial_ttf
 11
4136.0365925726
 21
-3159.0445215246
 31
0.0
100
AcDbText
 73
     3
  0
TEXT
  5
44
330
1F
100
AcDbEntity
  8
Predefinito
  6
Continuous
 62
     7
100
AcDbText
 10
3811.1615277906
 20
-1343.5790581301
 30
0.0
 40
200.0
  1
iF30
  7
SEACAD_arial_ttf
 11
3811.1615277906
 21
-1143.5790581301
 31
0.0
100
AcDbText
 73
     3
  0
SPLINE
  5
46
330
1F
100
AcDbEntity
  8
DV1_Livello_1
  6
Continuous
 62
     7
100
AcDbSpline
210
0.0
220
0.0
230
1.0
 70
    24
 71
     3
 72
     8
 73
     4
 74
     0
 42
0.0000000001202534
 43
0.0000000001
 12
1.0
 22
0.0
 32
0.0
 13
1.0
 23
0.0
 33
0.0
 40
0.0
 40
0.0
 40
0.0
 40
0.0
 40
1.0
 40
1.0
 40
1.0
 40
1.0
 10
3983.000104912579
 20
-2305.566779481429
 30
0.0
 10
3983.000104912579
 20
-2305.566779481429
 30
0.0
 10
3909.94186551258
 20
-2265.846501281429
 30
0.0
 10
3909.94186551258
 20
-2265.846501281429
 30
0.0
  0
SPLINE
  5
47
330
1F
100
AcDbEntity
  8
DV1_Livello_1
  6
Continuous
 62
     7
100
AcDbSpline
210
0.0
220
0.0
230
1.0
 70
    24
 71
     3
 72
     8
 73
     4
 74
     0
 42
0.0000000000568291
 43
0.0000000001
 12
1.0
 22
0.0
 32
0.0
 13
1.0
 23
0.0
 33
0.0
 40
0.0
 40
0.0
 40
0.0
 40
0.0
 40
1.0
 40
1.0
 40
1.0
 40
1.0
 10
3835.898169912579
 20
-2428.120493481429
 30
0.0
 10
3835.898169912579
 20
-2428.120493481429
 30
0.0
 10
3910.091778312579
 20
-2268.560363881429
 30
0.0
 10
3910.091778312579
 20
-2268.560363881429
 30
0.0
  0
SPLINE
  5
48
330
1F
100
AcDbEntity
  8
DV1_Livello_1
  6
Continuous
 62
     7
100
AcDbSpline
210
0.0
220
0.0
230
1.0
 70
    24
 71
     3
 72
     8
 73
     4
 74
     0
 42
0.0000000002488984
 43
0.0000000001
 12
1.0
 22
0.0
 32
0.0
 13
1.0
 23
0.0
 33
0.0
 40
0.0
 40
0.0
 40
0.0
 40
0.0
 40
1.0
 40
1.0
 40
1.0
 40
1.0
 10
3915.58674381258
 20
-2555.254263981428
 30
0.0
 10
3915.58674381258
 20
-2555.254263981428
 30
0.0
 10
3878.947394112579
 20
-2538.769367481429
 30
0.0
 10
3878.947394112579
 20
-2538.769367481429
 30
0.0
  0
SPLINE
  5
49
330
1F
100
AcDbEntity
  8
DV1_Livello_1
  6
Continuous
 62
     7
100
AcDbSpline
210
0.0
220
0.0
230
1.0
 70
    24
 71
     3
 72
     8
 73
     4
 74
     0
 42
0.0000000002488928
 43
0.0000000001
 12
1.0
 22
0.0
 32
0.0
 13
1.0
 23
0.0
 33
0.0
 40
0.0
 40
0.0
 40
0.0
 40
0.0
 40
1.0
 40
1.0
 40
1.0
 40
1.0
 10
3918.88482541258
 20
-2547.928378181429
 30
0.0
 10
3918.88482541258
 20
-2547.928378181429
 30
0.0
 10
3882.24547571258
 20
-2531.441277081428
 30
0.0
 10
3882.24547571258
 20
-2531.441277081428
 30
0.0
  0
SPLINE
  5
4A
330
1F
100
AcDbEntity
  8
DV1_Livello_1
  6
Continuous
 62
     7
100
AcDbSpline
210
0.0
220
0.0
230
1.0
 70
    24
 71
     3
 72
     8
 73
     4
 74
     0
 42
0.0000000002493567
 43
0.0000000001
 12
1.0
 22
0.0
 32
0.0
 13
1.0
 23
0.0
 33
0.0
 40
0.0
 40
0.0
 40
0.0
 40
0.0
 40
1.0
 40
1.0
 40
1.0
 40
1.0
 10
3954.608163812579
 20
-2467.873840681429
 30
0.0
 10
3954.608163812579
 20
-2467.873840681429
 30
0.0
 10
3917.968814112579
 20
-2451.569721381428
 30
0.0
 10
3917.968814112579
 20
-2451.569721381428
 30
0.0
  0
SPLINE
  5
4B
330
1F
100
AcDbEntity
  8
DV1_Livello_1
  6
Continuous
 62
     7
100
AcDbSpline
210
0.0
220
0.0
230
1.0
 70
    24
 71
     3
 72
     8
 73
     4
 74
     0
 42
0.0000000002478726
 43
0.0000000001
 12
1.0
 22
0.0
 32
0.0
 13
1.0
 23
0.0
 33
0.0
 40
0.0
 40
0.0
 40
0.0
 40
0.0
 40
1.0
 40
1.0
 40
1.0
 40
1.0
 10
3945.62882801258
 20
-2488.207968781428
 30
0.0
 10
3945.62882801258
 20
-2488.207968781428
 30
0.0
 10
3908.808701112579
 20
-2471.719765381429
 30
0.0
 10
3908.808701112579
 20
-2471.719765381429
 30
0.0
  0
SPLINE
  5
4C
330
1F
100
AcDbEntity
  8
DV1_Livello_1
  6
Continuous
 62
     7
100
AcDbSpline
210
0.0
220
0.0
230
1.0
 70
    24
 71
     3
 72
     8
 73
     4
 74
     0
 42
0.000000000247863
 43
0.0000000001
 12
1.0
 22
0.0
 32
0.0
 13
1.0
 23
0.0
 33
0.0
 40
0.0
 40
0.0
 40
0.0
 40
0.0
 40
1.0
 40
1.0
 40
1.0
 40
1.0
 10
3942.332951012579
 20
-2495.536059181429
 30
0.0
 10
3942.332951012579
 20
-2495.536059181429
 30
0.0
 10
3905.51061951258
 20
-2479.048958081429
 30
0.0
 10
3905.51061951258
 20
-2479.048958081429
 30
0.0
  0
SPLINE
  5
4D
330
1F
100
AcDbEntity
  8
DV1_Livello_1
  6
Continuous
 62
     7
100
AcDbSpline
210
0.0
220
0.0
230
1.0
 70
    24
 71
     3
 72
     8
 73
     4
 74
     0
 42
0.0000000000649329
 43
0.0000000001
 12
1.0
 22
0.0
 32
0.0
 13
1.0
 23
0.0
 33
0.0
 40
0.0
 40
0.0
 40
0.0
 40
0.0
 40
1.0
 40
1.0
 40
1.0
 40
1.0
 10
4013.991269412579
 20
-2908.531493281429
 30
0.0
 10
4013.991269412579
 20
-2908.531493281429
 30
0.0
 10
4123.11786711258
 20
-2799.862350081428
 30
0.0
 10
4123.11786711258
 20
-2799.862350081428
 30
0.0
  0
SPLINE
  5
4E
330
1F
100
AcDbEntity
  8
DV1_Livello_1
  6
Continuous
 62
     7
100
AcDbSpline
210
0.0
220
0.0
230
1.0
 70
    24
 71
     3
 72
     8
 73
     4
 74
     0
 42
0.0000000000214848
 43
0.0000000001
 12
1.0
 22
0.0
 32
0.0
 13
1.0
 23
0.0
 33
0.0
 40
0.0
 40
0.0
 40
0.0
 40
0.0
 40
1.0
 40
1.0
 40
1.0
 40
1.0
 10
4026.05814751258
 20
-2345.556018881429
 30
0.0
 10
4026.05814751258
 20
-2345.556018881429
 30
0.0
 10
4123.24463161258
 20
-2800.740883181429
 30
0.0
 10
4123.24463161258
 20
-2800.740883181429
 30
0.0
  0
SPLINE
  5
4F
330
1F
100
AcDbEntity
  8
DV1_Livello_1
  6
Continuous
 62
     7
100
AcDbSpline
210
0.0
220
0.0
230
1.0
 70
    24
 71
     3
 72
     8
 73
     4
 74
     0
 42
0.0000000000994687
 43
0.0000000001
 12
1.0
 22
0.0
 32
0.0
 13
1.0
 23
0.0
 33
0.0
 40
0.0
 40
0.0
 40
0.0
 40
0.0
 40
1.0
 40
1.0
 40
1.0
 40
1.0
 10
3655.271985012579
 20
-2832.791357981429
 30
0.0
 10
3655.271985012579
 20
-2832.791357981429
 30
0.0
 10
3696.306204812579
 20
-2741.012757681429
 30
0.0
 10
3696.306204812579
 20
-2741.012757681429
 30
0.0
  0
SPLINE
  5
50
330
1F
100
AcDbEntity
  8
DV1_Livello_1
  6
Continuous
 62
     7
100
AcDbSpline
210
0.0
220
0.0
230
1.0
 70
    24
 71
     3
 72
     8
 73
     4
 74
     0
 42
0.0000000000163532
 43
0.0000000001
 12
1.0
 22
0.0
 32
0.0
 13
1.0
 23
0.0
 33
0.0
 40
0.0
 40
0.0
 40
0.0
 40
0.0
 40
1.0
 40
1.0
 40
1.0
 40
1.0
 10
4009.196264412579
 20
-2345.869072081428
 30
0.0
 10
4009.196264412579
 20
-2345.869072081428
 30
0.0
 10
3759.87364121258
 20
-2904.234727881429
 30
0.0
 10
3759.87364121258
 20
-2904.234727881429
 30
0.0
  0
SPLINE
  5
51
330
1F
100
AcDbEntity
  8
DV1_Livello_1
  6
Continuous
 62
     7
100
AcDbSpline
210
0.0
220
0.0
230
1.0
 70
    24
 71
     3
 72
     8
 73
     4
 74
     0
 42
0.0000000000802311
 43
0.0000000001
 12
1.0
 22
0.0
 32
0.0
 13
1.0
 23
0.0
 33
0.0
 40
0.0
 40
0.0
 40
0.0
 40
0.0
 40
1.0
 40
1.0
 40
1.0
 40
1.0
 10
3769.03375421258
 20
-2883.716515681429
 30
0.0
 10
3769.03375421258
 20
-2883.716515681429
 30
0.0
 10
3655.271985012579
 20
-2832.791357981429
 30
0.0
 10
3655.271985012579
 20
-2832.791357981429
 30
0.0
  0
SPLINE
  5
52
330
1F
100
AcDbEntity
  8
DV1_Livello_1
  6
Continuous
 62
     7
100
AcDbSpline
210
0.0
220
0.0
230
1.0
 70
    24
 71
     3
 72
     8
 73
     4
 74
     0
 42
0.0000000000407673
 43
0.0000000001
 12
1.0
 22
0.0
 32
0.0
 13
1.0
 23
0.0
 33
0.0
 40
0.0
 40
0.0
 40
0.0
 40
0.0
 40
1.0
 40
1.0
 40
1.0
 40
1.0
 10
3766.834665712579
 20
-2954.612042481428
 30
0.0
 10
3766.834665712579
 20
-2954.612042481428
 30
0.0
 10
4012.129484712579
 20
-2954.612042481428
 30
0.0
 10
4012.129484712579
 20
-2954.612042481428
 30
0.0
  0
SPLINE
  5
53
330
1F
100
AcDbEntity
  8
DV1_Livello_1
  6
Continuous
 62
     7
100
AcDbSpline
210
0.0
220
0.0
230
1.0
 70
    24
 71
     3
 72
     8
 73
     4
 74
     0
 42
0.0000000000407673
 43
0.0000000001
 12
1.0
 22
0.0
 32
0.0
 13
1.0
 23
0.0
 33
0.0
 40
0.0
 40
0.0
 40
0.0
 40
0.0
 40
1.0
 40
1.0
 40
1.0
 40
1.0
 10
4012.129484712579
 20
-2904.234727881429
 30
0.0
 10
4012.129484712579
 20
-2904.234727881429
 30
0.0
 10
3766.834665712579
 20
-2904.234727881429
 30
0.0
 10
3766.834665712579
 20
-2904.234727881429
 30
0.0
  0
SPLINE
  5
54
330
1F
100
AcDbEntity
  8
DV1_Livello_1
  6
Continuous
 62
     7
100
AcDbSpline
210
0.0
220
0.0
230
1.0
 70
    24
 71
     3
 72
     8
 73
     4
 74
     0
 42
0.0000000000378291
 43
0.0000000001
 12
1.0
 22
0.0
 32
0.0
 13
1.0
 23
0.0
 33
0.0
 40
0.0
 40
0.0
 40
0.0
 40
0.0
 40
1.0
 40
1.0
 40
1.0
 40
1.0
 10
4024.220613412579
 20
-2904.234727881429
 30
0.0
 10
4024.220613412579
 20
-2904.234727881429
 30
0.0
 10
3759.87364121258
 20
-2904.234727881429
 30
0.0
 10
3759.87364121258
 20
-2904.234727881429
 30
0.0
  0
SPLINE
  5
55
330
1F
100
AcDbEntity
  8
DV1_Livello_1
  6
Continuous
 62
     7
100
AcDbSpline
210
0.0
220
0.0
230
1.0
 70
    24
 71
     3
 72
     8
 73
     4
 74
     0
 42
0.000000000198502
 43
0.0000000001
 12
1.0
 22
0.0
 32
0.0
 13
1.0
 23
0.0
 33
0.0
 40
0.0
 40
0.0
 40
0.0
 40
0.0
 40
1.0
 40
1.0
 40
1.0
 40
1.0
 10
3766.834665712579
 20
-2904.234727881429
 30
0.0
 10
3766.834665712579
 20
-2904.234727881429
 30
0.0
 10
3766.834665712579
 20
-2954.612042481428
 30
0.0
 10
3766.834665712579
 20
-2954.612042481428
 30
0.0
  0
SPLINE
  5
56
330
1F
100
AcDbEntity
  8
DV1_Livello_1
  6
Continuous
 62
     7
100
AcDbSpline
210
0.0
220
0.0
230
1.0
 70
    24
 71
     3
 72
     8
 73
     4
 74
     0
 42
0.000000000198502
 43
0.0000000001
 12
1.0
 22
0.0
 32
0.0
 13
1.0
 23
0.0
 33
0.0
 40
0.0
 40
0.0
 40
0.0
 40
0.0
 40
1.0
 40
1.0
 40
1.0
 40
1.0
 10
4012.129484712579
 20
-2954.612042481428
 30
0.0
 10
4012.129484712579
 20
-2954.612042481428
 30
0.0
 10
4012.129484712579
 20
-2904.234727881429
 30
0.0
 10
4012.129484712579
 20
-2904.234727881429
 30
0.0
  0
SPLINE
  5
57
330
1F
100
AcDbEntity
  8
DV1_Livello_1
  6
Continuous
 62
     7
100
AcDbSpline
210
0.0
220
0.0
230
1.0
 70
    24
 71
     3
 72
     8
 73
     4
 74
     0
 42
0.0000000000380245
 43
0.0000000001
 12
1.0
 22
0.0
 32
0.0
 13
1.0
 23
0.0
 33
0.0
 40
0.0
 40
0.0
 40
0.0
 40
0.0
 40
1.0
 40
1.0
 40
1.0
 40
1.0
 10
3875.83560121258
 20
-2545.730391981429
 30
0.0
 10
3875.83560121258
 20
-2545.730391981429
 30
0.0
 10
3983.000104912579
 20
-2305.566779481429
 30
0.0
 10
3983.000104912579
 20
-2305.566779481429
 30
0.0
  0
SPLINE
  5
58
330
1F
100
AcDbEntity
  8
DV1_Livello_1
  6
Continuous
 62
     7
100
AcDbSpline
210
0.0
220
0.0
230
1.0
 70
    24
 71
     3
 72
     8
 73
     4
 74
     0
 42
0.0000000002489087
 43
0.0000000001
 12
1.0
 22
0.0
 32
0.0
 13
1.0
 23
0.0
 33
0.0
 40
0.0
 40
0.0
 40
0.0
 40
0.0
 40
1.0
 40
1.0
 40
1.0
 40
1.0
 10
3949.658836812579
 20
-2479.048958081429
 30
0.0
 10
3949.658836812579
 20
-2479.048958081429
 30
0.0
 10
3913.022794012579
 20
-2462.560754681429
 30
0.0
 10
3913.022794012579
 20
-2462.560754681429
 30
0.0
  0
SPLINE
  5
59
330
1F
100
AcDbEntity
  8
DV1_Livello_1
  6
Continuous
 62
     7
100
AcDbSpline
210
0.0
220
0.0
230
1.0
 70
    24
 71
     3
 72
     8
 73
     4
 74
     0
 42
0.0000000002478726
 43
0.0000000001
 12
1.0
 22
0.0
 32
0.0
 13
1.0
 23
0.0
 33
0.0
 40
0.0
 40
0.0
 40
0.0
 40
0.0
 40
1.0
 40
1.0
 40
1.0
 40
1.0
 10
3957.90293851258
 20
-2460.728732081428
 30
0.0
 10
3957.90293851258
 20
-2460.728732081428
 30
0.0
 10
3921.082811612579
 20
-2444.240528681429
 30
0.0
 10
3921.082811612579
 20
-2444.240528681429
 30
0.0
  0
SPLINE
  5
5A
330
1F
100
AcDbEntity
  8
DV1_Livello_1
  6
Continuous
 62
     7
100
AcDbSpline
210
0.0
220
0.0
230
1.0
 70
    24
 71
     3
 72
     8
 73
     4
 74
     0
 42
0.0000000002478726
 43
0.0000000001
 12
1.0
 22
0.0
 32
0.0
 13
1.0
 23
0.0
 33
0.0
 40
0.0
 40
0.0
 40
0.0
 40
0.0
 40
1.0
 40
1.0
 40
1.0
 40
1.0
 10
3945.62882801258
 20
-2488.207968781428
 30
0.0
 10
3945.62882801258
 20
-2488.207968781428
 30
0.0
 10
3908.808701112579
 20
-2471.719765381429
 30
0.0
 10
3908.808701112579
 20
-2471.719765381429
 30
0.0
  0
SPLINE
  5
5B
330
1F
100
AcDbEntity
  8
DV1_Livello_1
  6
Continuous
 62
     7
100
AcDbSpline
210
0.0
220
0.0
230
1.0
 70
    24
 71
     3
 72
     8
 73
     4
 74
     0
 42
0.0000000001167975
 43
0.0000000001
 12
1.0
 22
0.0
 32
0.0
 13
1.0
 23
0.0
 33
0.0
 40
0.0
 40
0.0
 40
0.0
 40
0.0
 40
1.0
 40
1.0
 40
1.0
 40
1.0
 10
3753.64454391258
 20
-2612.411825881428
 30
0.0
 10
3753.64454391258
 20
-2612.411825881428
 30
0.0
 10
3788.451871012579
 20
-2534.188208681428
 30
0.0
 10
3788.451871012579
 20
-2534.188208681428
 30
0.0
  0
SPLINE
  5
5C
330
1F
100
AcDbEntity
  8
DV1_Livello_1
  6
Continuous
 62
     7
100
AcDbSpline
210
0.0
220
0.0
230
1.0
 70
    24
 71
     3
 72
     8
 73
     4
 74
     0
 42
0.0000000000709827
 43
0.0000000001
 12
1.0
 22
0.0
 32
0.0
 13
1.0
 23
0.0
 33
0.0
 40
0.0
 40
0.0
 40
0.0
 40
0.0
 40
1.0
 40
1.0
 40
1.0
 40
1.0
 10
3827.10622511258
 20
-2645.201943981429
 30
0.0
 10
3827.10622511258
 20
-2645.201943981429
 30
0.0
 10
3769.583801912579
 20
-2773.802875781429
 30
0.0
 10
3769.583801912579
 20
-2773.802875781429
 30
0.0
  0
SPLINE
  5
5D
330
1F
100
AcDbEntity
  8
DV1_Livello_1
  6
Continuous
 62
     7
100
AcDbSpline
210
0.0
220
0.0
230
1.0
 70
    24
 71
     3
 72
     8
 73
     4
 74
     0
 42
0.000000000080278
 43
0.0000000001
 12
1.0
 22
0.0
 32
0.0
 13
1.0
 23
0.0
 33
0.0
 40
0.0
 40
0.0
 40
0.0
 40
0.0
 40
1.0
 40
1.0
 40
1.0
 40
1.0
 10
3867.407415412579
 20
-2663.156206381429
 30
0.0
 10
3867.407415412579
 20
-2663.156206381429
 30
0.0
 10
3753.64454391258
 20
-2612.411825881428
 30
0.0
 10
3753.64454391258
 20
-2612.411825881428
 30
0.0
  0
SPLINE
  5
5E
330
1F
100
AcDbEntity
  8
DV1_Livello_1
  6
Continuous
 62
     7
100
AcDbSpline
210
0.0
220
0.0
230
1.0
 70
    24
 71
     3
 72
     8
 73
     4
 74
     0
 42
0.0000000000802302
 43
0.0000000001
 12
1.0
 22
0.0
 32
0.0
 13
1.0
 23
0.0
 33
0.0
 40
0.0
 40
0.0
 40
0.0
 40
0.0
 40
1.0
 40
1.0
 40
1.0
 40
1.0
 10
3696.306204812579
 20
-2741.012757681429
 30
0.0
 10
3696.306204812579
 20
-2741.012757681429
 30
0.0
 10
3810.069076312579
 20
-2791.939017681429
 30
0.0
 10
3810.069076312579
 20
-2791.939017681429
 30
0.0
  0
SPLINE
  5
5F
330
1F
100
AcDbEntity
  8
DV1_Livello_1
  6
Continuous
 62
     7
100
AcDbSpline
210
0.0
220
0.0
230
1.0
 70
    24
 71
     3
 72
     8
 73
     4
 74
     0
 42
0.0000000000709817
 43
0.0000000001
 12
1.0
 22
0.0
 32
0.0
 13
1.0
 23
0.0
 33
0.0
 40
0.0
 40
0.0
 40
0.0
 40
0.0
 40
1.0
 40
1.0
 40
1.0
 40
1.0
 10
3826.370991012579
 20
-2755.118890781428
 30
0.0
 10
3826.370991012579
 20
-2755.118890781428
 30
0.0
 10
3883.89561881258
 20
-2626.516856681429
 30
0.0
 10
3883.89561881258
 20
-2626.516856681429
 30
0.0
  0
SPLINE
  5
60
330
1F
100
AcDbEntity
  8
DV1_Livello_1
  6
Continuous
 62
     7
100
AcDbSpline
210
0.0
220
0.0
230
1.0
 70
    24
 71
     3
 72
     8
 73
     4
 74
     0
 42
0.0000000003322713
 43
0.0000000001
 12
1.0
 22
0.0
 32
0.0
 13
1.0
 23
0.0
 33
0.0
 40
0.0
 40
0.0
 40
0.0
 40
0.0
 40
1.0
 40
1.0
 40
1.0
 40
1.0
 10
3849.820218912579
 20
-2702.542487681428
 30
0.0
 10
3849.820218912579
 20
-2702.542487681428
 30
0.0
 10
3822.34098221258
 20
-2690.268377181429
 30
0.0
 10
3822.34098221258
 20
-2690.268377181429
 30
0.0
  0
SPLINE
  5
61
330
1F
100
AcDbEntity
  8
DV1_Livello_1
  6
Continuous
 62
     7
100
AcDbSpline
210
0.0
220
0.0
230
1.0
 70
    24
 71
     3
 72
     8
 73
     4
 74
     0
 42
0.0000000003304311
 43
0.0000000001
 12
1.0
 22
0.0
 32
0.0
 13
1.0
 23
0.0
 33
0.0
 40
0.0
 40
0.0
 40
0.0
 40
0.0
 40
1.0
 40
1.0
 40
1.0
 40
1.0
 10
3854.40137771258
 20
-2692.467465681429
 30
0.0
 10
3854.40137771258
 20
-2692.467465681429
 30
0.0
 10
3826.73915921258
 20
-2680.192252881428
 30
0.0
 10
3826.73915921258
 20
-2680.192252881428
 30
0.0
  0
SPLINE
  5
62
330
1F
100
AcDbEntity
  8
DV1_Livello_1
  6
Continuous
 62
     7
100
AcDbSpline
210
0.0
220
0.0
230
1.0
 70
    24
 71
     3
 72
     8
 73
     4
 74
     0
 42
0.0000000009095712
 43
0.0000000001
 12
1.0
 22
0.0
 32
0.0
 13
1.0
 23
0.0
 33
0.0
 40
0.0
 40
0.0
 40
0.0
 40
0.0
 40
1.0
 40
1.0
 40
1.0
 40
1.0
 10
3822.34098221258
 20
-2690.268377181429
 30
0.0
 10
3822.34098221258
 20
-2690.268377181429
 30
0.0
 10
3826.73915921258
 20
-2680.192252881428
 30
0.0
 10
3826.73915921258
 20
-2680.192252881428
 30
0.0
  0
SPLINE
  5
63
330
1F
100
AcDbEntity
  8
DV1_Livello_1
  6
Continuous
 62
     7
100
AcDbSpline
210
0.0
220
0.0
230
1.0
 70
    24
 71
     3
 72
     8
 73
     4
 74
     0
 42
0.0000000001234236
 43
0.0000000001
 12
1.0
 22
0.0
 32
0.0
 13
1.0
 23
0.0
 33
0.0
 40
0.0
 40
0.0
 40
0.0
 40
0.0
 40
1.0
 40
1.0
 40
1.0
 40
1.0
 10
3835.35032681258
 20
-2438.930749581429
 30
0.0
 10
3835.35032681258
 20
-2438.930749581429
 30
0.0
 10
3802.373920012579
 20
-2512.938069281428
 30
0.0
 10
3802.373920012579
 20
-2512.938069281428
 30
0.0
  0
SPLINE
  5
64
330
1F
100
AcDbEntity
  8
DV1_Livello_1
  6
Continuous
 62
     7
100
AcDbSpline
210
0.0
220
0.0
230
1.0
 70
    24
 71
     3
 72
     8
 73
     4
 74
     0
 42
0.0000000001243046
 43
0.0000000001
 12
1.0
 22
0.0
 32
0.0
 13
1.0
 23
0.0
 33
0.0
 40
0.0
 40
0.0
 40
0.0
 40
0.0
 40
1.0
 40
1.0
 40
1.0
 40
1.0
 10
3831.685179312579
 20
-2437.279504181428
 30
0.0
 10
3831.685179312579
 20
-2437.279504181428
 30
0.0
 10
3798.89506121258
 20
-2510.741185381428
 30
0.0
 10
3798.89506121258
 20
-2510.741185381428
 30
0.0
  0
SPLINE
  5
65
330
1F
100
AcDbEntity
  8
DV1_Livello_1
  6
Continuous
 62
     7
100
AcDbSpline
210
0.0
220
0.0
230
1.0
 70
    24
 71
     3
 72
     8
 73
     4
 74
     0
 42
0.0000000000802309
 43
0.0000000001
 12
1.0
 22
0.0
 32
0.0
 13
1.0
 23
0.0
 33
0.0
 40
0.0
 40
0.0
 40
0.0
 40
0.0
 40
1.0
 40
1.0
 40
1.0
 40
1.0
 10
3788.451871012579
 20
-2534.188208681428
 30
0.0
 10
3788.451871012579
 20
-2534.188208681428
 30
0.0
 10
3902.21253791258
 20
-2585.116673281429
 30
0.0
 10
3902.21253791258
 20
-2585.116673281429
 30
0.0
  0
SPLINE
  5
66
330
1F
100
AcDbEntity
  8
DV1_Livello_1
  6
Continuous
 62
     7
100
AcDbSpline
210
0.0
220
0.0
230
1.0
 70
    24
 71
     3
 72
     8
 73
     4
 74
     0
 42
0.0000000000802309
 43
0.0000000001
 12
1.0
 22
0.0
 32
0.0
 13
1.0
 23
0.0
 33
0.0
 40
0.0
 40
0.0
 40
0.0
 40
0.0
 40
1.0
 40
1.0
 40
1.0
 40
1.0
 10
3798.710977112579
 20
-2511.290130781429
 30
0.0
 10
3798.710977112579
 20
-2511.290130781429
 30
0.0
 10
3912.471644012579
 20
-2562.218595381428
 30
0.0
 10
3912.471644012579
 20
-2562.218595381428
 30
0.0
  0
SPLINE
  5
67
330
1F
100
AcDbEntity
  8
DV1_Livello_1
  6
Continuous
 62
     7
100
AcDbSpline
210
0.0
220
0.0
230
1.0
 70
    24
 71
     3
 72
     8
 73
     4
 74
     0
 42
0.0000000003985452
 43
0.0000000001
 12
1.0
 22
0.0
 32
0.0
 13
1.0
 23
0.0
 33
0.0
 40
0.0
 40
0.0
 40
0.0
 40
0.0
 40
1.0
 40
1.0
 40
1.0
 40
1.0
 10
3798.710977112579
 20
-2511.290130781429
 30
0.0
 10
3798.710977112579
 20
-2511.290130781429
 30
0.0
 10
3788.451871012579
 20
-2534.188208681428
 30
0.0
 10
3788.451871012579
 20
-2534.188208681428
 30
0.0
  0
SPLINE
  5
68
330
1F
100
AcDbEntity
  8
DV1_Livello_1
  6
Continuous
 62
     7
100
AcDbSpline
210
0.0
220
0.0
230
1.0
 70
    24
 71
     3
 72
     8
 73
     4
 74
     0
 42
0.0000000001742144
 43
0.0000000001
 12
1.0
 22
0.0
 32
0.0
 13
1.0
 23
0.0
 33
0.0
 40
0.0
 40
0.0
 40
0.0
 40
0.0
 40
1.0
 40
1.0
 40
1.0
 40
1.0
 10
3928.592781512579
 20
-2489.308064181429
 30
0.0
 10
3928.592781512579
 20
-2489.308064181429
 30
0.0
 10
3905.14355361258
 20
-2541.700383181429
 30
0.0
 10
3905.14355361258
 20
-2541.700383181429
 30
0.0
  0
SPLINE
  5
69
330
1F
100
AcDbEntity
  8
DV1_Livello_1
  6
Continuous
 62
     7
100
AcDbSpline
210
0.0
220
0.0
230
1.0
 70
    24
 71
     3
 72
     8
 73
     4
 74
     0
 42
0.0000000000814095
 43
0.0000000001
 12
1.0
 22
0.0
 32
0.0
 13
1.0
 23
0.0
 33
0.0
 40
0.0
 40
0.0
 40
0.0
 40
0.0
 40
1.0
 40
1.0
 40
1.0
 40
1.0
 10
3880.046387212579
 20
-2413.099451381428
 30
0.0
 10
3880.046387212579
 20
-2413.099451381428
 30
0.0
 10
3829.85315671258
 20
-2525.212179781429
 30
0.0
 10
3829.85315671258
 20
-2525.212179781429
 30
0.0
  0
SPLINE
  5
6A
330
1F
100
AcDbEntity
  8
DV1_Livello_1
  6
Continuous
 62
     7
100
AcDbSpline
210
0.0
220
0.0
230
1.0
 70
    24
 71
     3
 72
     8
 73
     4
 74
     0
 42
0.0000000000814095
 43
0.0000000001
 12
1.0
 22
0.0
 32
0.0
 13
1.0
 23
0.0
 33
0.0
 40
0.0
 40
0.0
 40
0.0
 40
0.0
 40
1.0
 40
1.0
 40
1.0
 40
1.0
 10
3829.85315671258
 20
-2525.212179781429
 30
0.0
 10
3829.85315671258
 20
-2525.212179781429
 30
0.0
 10
3880.046387212579
 20
-2413.099451381428
 30
0.0
 10
3880.046387212579
 20
-2413.099451381428
 30
0.0
  0
SPLINE
  5
6B
330
1F
100
AcDbEntity
  8
DV1_Livello_1
  6
Continuous
 62
     7
100
AcDbSpline
210
0.0
220
0.0
230
1.0
 70
    24
 71
     3
 72
     8
 73
     4
 74
     0
 42
0.0000000013113376
 43
0.0000000001
 12
1.0
 22
0.0
 32
0.0
 13
1.0
 23
0.0
 33
0.0
 40
0.0
 40
0.0
 40
0.0
 40
0.0
 40
1.0
 40
1.0
 40
1.0
 40
1.0
 10
3901.84767661258
 20
-2549.028473581428
 30
0.0
 10
3901.84767661258
 20
-2549.028473581428
 30
0.0
 10
3898.733679112579
 20
-2555.989498081428
 30
0.0
 10
3898.733679112579
 20
-2555.989498081428
 30
0.0
  0
SPLINE
  5
6C
330
1F
100
AcDbEntity
  8
DV1_Livello_1
  6
Continuous
 62
     7
100
AcDbSpline
210
0.0
220
0.0
230
1.0
 70
    24
 71
     3
 72
     8
 73
     4
 74
     0
 42
0.0000000002917189
 43
0.0000000001
 12
1.0
 22
0.0
 32
0.0
 13
1.0
 23
0.0
 33
0.0
 40
0.0
 40
0.0
 40
0.0
 40
0.0
 40
1.0
 40
1.0
 40
1.0
 40
1.0
 10
3863.010340712579
 20
-2451.201553181429
 30
0.0
 10
3863.010340712579
 20
-2451.201553181429
 30
0.0
 10
3831.685179312579
 20
-2437.279504181428
 30
0.0
 10
3831.685179312579
 20
-2437.279504181428
 30
0.0
  0
SPLINE
  5
6D
330
1F
100
AcDbEntity
  8
DV1_Livello_1
  6
Continuous
 62
     7
100
AcDbSpline
210
0.0
220
0.0
230
1.0
 70
    24
 71
     3
 72
     8
 73
     4
 74
     0
 42
0.0000000002931404
 43
0.0000000001
 12
1.0
 22
0.0
 32
0.0
 13
1.0
 23
0.0
 33
0.0
 40
0.0
 40
0.0
 40
0.0
 40
0.0
 40
1.0
 40
1.0
 40
1.0
 40
1.0
 10
3867.040349512579
 20
-2442.044747081428
 30
0.0
 10
3867.040349512579
 20
-2442.044747081428
 30
0.0
 10
3835.898169912579
 20
-2428.120493481429
 30
0.0
 10
3835.898169912579
 20
-2428.120493481429
 30
0.0
  0
SPLINE
  5
6E
330
1F
100
AcDbEntity
  8
DV1_Livello_1
  6
Continuous
 62
     7
100
AcDbSpline
210
0.0
220
0.0
230
1.0
 70
    24
 71
     3
 72
     8
 73
     4
 74
     0
 42
0.0000000009919153
 43
0.0000000001
 12
1.0
 22
0.0
 32
0.0
 13
1.0
 23
0.0
 33
0.0
 40
0.0
 40
0.0
 40
0.0
 40
0.0
 40
1.0
 40
1.0
 40
1.0
 40
1.0
 10
3831.685179312579
 20
-2437.279504181428
 30
0.0
 10
3831.685179312579
 20
-2437.279504181428
 30
0.0
 10
3835.898169912579
 20
-2428.120493481429
 30
0.0
 10
3835.898169912579
 20
-2428.120493481429
 30
0.0
  0
SPLINE
  5
6F
330
1F
100
AcDbEntity
  8
DV1_Livello_1
  6
Continuous
 62
     7
100
AcDbSpline
210
0.0
220
0.0
230
1.0
 70
    24
 71
     3
 72
     8
 73
     4
 74
     0
 42
0.0000000001992624
 43
0.0000000001
 12
1.0
 22
0.0
 32
0.0
 13
1.0
 23
0.0
 33
0.0
 40
0.0
 40
0.0
 40
0.0
 40
0.0
 40
1.0
 40
1.0
 40
1.0
 40
1.0
 10
3880.046387212579
 20
-2413.099451381428
 30
0.0
 10
3880.046387212579
 20
-2413.099451381428
 30
0.0
 10
3925.845849912579
 20
-2433.616561281429
 30
0.0
 10
3925.845849912579
 20
-2433.616561281429
 30
0.0
  0
SPLINE
  5
70
330
1F
100
AcDbEntity
  8
DV1_Livello_1
  6
Continuous
 62
     7
100
AcDbSpline
210
0.0
220
0.0
230
1.0
 70
    24
 71
     3
 72
     8
 73
     4
 74
     0
 42
0.0000000005007695
 43
0.0000000001
 12
1.0
 22
0.0
 32
0.0
 13
1.0
 23
0.0
 33
0.0
 40
0.0
 40
0.0
 40
0.0
 40
0.0
 40
1.0
 40
1.0
 40
1.0
 40
1.0
 10
4027.23650621258
 20
-2345.869072081428
 30
0.0
 10
4027.23650621258
 20
-2345.869072081428
 30
0.0
 10
4007.267239412579
 20
-2345.869072081428
 30
0.0
 10
4007.267239412579
 20
-2345.869072081428
 30
0.0
  0
SPLINE
  5
71
330
1F
100
AcDbEntity
  8
DV1_Livello_1
  6
Continuous
 62
     7
100
AcDbSpline
210
0.0
220
0.0
230
1.0
 70
    24
 71
     3
 72
     8
 73
     4
 74
     0
 42
0.0000000001992301
 43
0.0000000001
 12
1.0
 22
0.0
 32
0.0
 13
1.0
 23
0.0
 33
0.0
 40
0.0
 40
0.0
 40
0.0
 40
0.0
 40
1.0
 40
1.0
 40
1.0
 40
1.0
 10
4799.070273112579
 20
-2779.833559081429
 30
0.0
 10
4799.070273112579
 20
-2779.833559081429
 30
0.0
 10
4799.070273112579
 20
-2830.026789581429
 30
0.0
 10
4799.070273112579
 20
-2830.026789581429
 30
0.0
  0
SPLINE
  5
72
330
1F
100
AcDbEntity
  8
DV1_Livello_1
  6
Continuous
 62
     7
100
AcDbSpline
210
0.0
220
0.0
230
1.0
 70
    24
 71
     3
 72
     8
 73
     4
 74
     0
 42
0.0000000000700736
 43
0.0000000001
 12
1.0
 22
0.0
 32
0.0
 13
1.0
 23
0.0
 33
0.0
 40
0.0
 40
0.0
 40
0.0
 40
0.0
 40
1.0
 40
1.0
 40
1.0
 40
1.0
 10
4758.95206461258
 20
-2742.278198081428
 30
0.0
 10
4758.95206461258
 20
-2742.278198081428
 30
0.0
 10
4758.95206461258
 20
-2884.985262981429
 30
0.0
 10
4758.95206461258
 20
-2884.985262981429
 30
0.0
  0
SPLINE
  5
73
330
1F
100
AcDbEntity
  8
DV1_Livello_1
  6
Continuous
 62
     7
100
AcDbSpline
210
0.0
220
0.0
230
1.0
 70
    24
 71
     3
 72
     8
 73
     4
 74
     0
 42
0.0000000000700736
 43
0.0000000001
 12
1.0
 22
0.0
 32
0.0
 13
1.0
 23
0.0
 33
0.0
 40
0.0
 40
0.0
 40
0.0
 40
0.0
 40
1.0
 40
1.0
 40
1.0
 40
1.0
 10
4798.15426181258
 20
-2742.278198081428
 30
0.0
 10
4798.15426181258
 20
-2742.278198081428
 30
0.0
 10
4798.15426181258
 20
-2884.985262981429
 30
0.0
 10
4798.15426181258
 20
-2884.985262981429
 30
0.0
  0
SPLINE
  5
74
330
1F
100
AcDbEntity
  8
DV1_Livello_1
  6
Continuous
 62
     7
100
AcDbSpline
210
0.0
220
0.0
230
1.0
 70
    24
 71
     3
 72
     8
 73
     4
 74
     0
 42
0.000000000072881
 43
0.0000000001
 12
1.0
 22
0.0
 32
0.0
 13
1.0
 23
0.0
 33
0.0
 40
0.0
 40
0.0
 40
0.0
 40
0.0
 40
1.0
 40
1.0
 40
1.0
 40
1.0
 10
4853.29681931258
 20
-2905.503475181429
 30
0.0
 10
4853.29681931258
 20
-2905.503475181429
 30
0.0
 10
4853.29681931258
 20
-2768.293580381428
 30
0.0
 10
4853.29681931258
 20
-2768.293580381428
 30
0.0
  0
SPLINE
  5
75
330
1F
100
AcDbEntity
  8
DV1_Livello_1
  6
Continuous
 62
     7
100
AcDbSpline
210
0.0
220
0.0
230
1.0
 70
    24
 71
     3
 72
     8
 73
     4
 74
     0
 42
0.0000000001344549
 43
0.0000000001
 12
1.0
 22
0.0
 32
0.0
 13
1.0
 23
0.0
 33
0.0
 40
0.0
 40
0.0
 40
0.0
 40
0.0
 40
1.0
 40
1.0
 40
1.0
 40
1.0
 10
4459.06804271258
 20
-2836.622952781428
 30
0.0
 10
4459.06804271258
 20
-2836.622952781428
 30
0.0
 10
4459.06804271258
 20
-2762.248567181428
 30
0.0
 10
4459.06804271258
 20
-2762.248567181428
 30
0.0
  0
SPLINE
  5
76
330
1F
100
AcDbEntity
  8
DV1_Livello_1
  6
Continuous
 62
     7
100
AcDbSpline
210
0.0
220
0.0
230
1.0
 70
    24
 71
     3
 72
     8
 73
     4
 74
     0
 42
0.0000000001344549
 43
0.0000000001
 12
1.0
 22
0.0
 32
0.0
 13
1.0
 23
0.0
 33
0.0
 40
0.0
 40
0.0
 40
0.0
 40
0.0
 40
1.0
 40
1.0
 40
1.0
 40
1.0
 10
4438.916896412579
 20
-2762.248567181428
 30
0.0
 10
4438.916896412579
 20
-2762.248567181428
 30
0.0
 10
4438.916896412579
 20
-2836.622952781428
 30
0.0
 10
4438.916896412579
 20
-2836.622952781428
 30
0.0
  0
SPLINE
  5
77
330
1F
100
AcDbEntity
  8
DV1_Livello_1
  6
Continuous
 62
     7
100
AcDbSpline
210
0.0
220
0.0
230
1.0
 70
    24
 71
     3
 72
     8
 73
     4
 74
     0
 42
0.0000000000179094
 43
0.0000000001
 12
1.0
 22
0.0
 32
0.0
 13
1.0
 23
0.0
 33
0.0
 40
0.0
 40
0.0
 40
0.0
 40
0.0
 40
1.0
 40
1.0
 40
1.0
 40
1.0
 10
4433.236744512579
 20
-2347.136717081428
 30
0.0
 10
4433.236744512579
 20
-2347.136717081428
 30
0.0
 10
4433.236744512579
 20
-2905.503475181429
 30
0.0
 10
4433.236744512579
 20
-2905.503475181429
 30
0.0
  0
SPLINE
  5
78
330
1F
100
AcDbEntity
  8
DV1_Livello_1
  6
Continuous
 62
     7
100
AcDbSpline
210
0.0
220
0.0
230
1.0
 70
    24
 71
     3
 72
     8
 73
     4
 74
     0
 42
0.0000000002550877
 43
0.0000000001
 12
1.0
 22
0.0
 32
0.0
 13
1.0
 23
0.0
 33
0.0
 40
0.0
 40
0.0
 40
0.0
 40
0.0
 40
1.0
 40
1.0
 40
1.0
 40
1.0
 10
4798.15426181258
 20
-2834.056798381429
 30
0.0
 10
4798.15426181258
 20
-2834.056798381429
 30
0.0
 10
4758.95206461258
 20
-2834.056798381429
 30
0.0
 10
4758.95206461258
 20
-2834.056798381429
 30
0.0
  0
SPLINE
  5
79
330
1F
100
AcDbEntity
  8
DV1_Livello_1
  6
Continuous
 62
     7
100
AcDbSpline
210
0.0
220
0.0
230
1.0
 70
    24
 71
     3
 72
     8
 73
     4
 74
     0
 42
0.0000000002550877
 43
0.0000000001
 12
1.0
 22
0.0
 32
0.0
 13
1.0
 23
0.0
 33
0.0
 40
0.0
 40
0.0
 40
0.0
 40
0.0
 40
1.0
 40
1.0
 40
1.0
 40
1.0
 10
4798.15426181258
 20
-2884.985262981429
 30
0.0
 10
4798.15426181258
 20
-2884.985262981429
 30
0.0
 10
4758.95206461258
 20
-2884.985262981429
 30
0.0
 10
4758.95206461258
 20
-2884.985262981429
 30
0.0
  0
SPLINE
  5
7A
330
1F
100
AcDbEntity
  8
DV1_Livello_1
  6
Continuous
 62
     7
100
AcDbSpline
210
0.0
220
0.0
230
1.0
 70
    24
 71
     3
 72
     8
 73
     4
 74
     0
 42
0.0000000000238061
 43
0.0000000001
 12
1.0
 22
0.0
 32
0.0
 13
1.0
 23
0.0
 33
0.0
 40
0.0
 40
0.0
 40
0.0
 40
0.0
 40
1.0
 40
1.0
 40
1.0
 40
1.0
 10
4433.236744512579
 20
-2905.503475181429
 30
0.0
 10
4433.236744512579
 20
-2905.503475181429
 30
0.0
 10
4853.29681931258
 20
-2905.503475181429
 30
0.0
 10
4853.29681931258
 20
-2905.503475181429
 30
0.0
  0
SPLINE
  5
7B
330
1F
100
AcDbEntity
  8
DV1_Livello_1
  6
Continuous
 62
     7
100
AcDbSpline
210
0.0
220
0.0
230
1.0
 70
    24
 71
     3
 72
     8
 73
     4
 74
     0
 42
0.0000000000333667
 43
0.0000000001
 12
1.0
 22
0.0
 32
0.0
 13
1.0
 23
0.0
 33
0.0
 40
0.0
 40
0.0
 40
0.0
 40
0.0
 40
1.0
 40
1.0
 40
1.0
 40
1.0
 10
4758.95206461258
 20
-2841.936038781428
 30
0.0
 10
4758.95206461258
 20
-2841.936038781428
 30
0.0
 10
4459.252126812579
 20
-2841.936038781428
 30
0.0
 10
4459.252126812579
 20
-2841.936038781428
 30
0.0
  0
SPLINE
  5
7C
330
1F
100
AcDbEntity
  8
DV1_Livello_1
  6
Continuous
 62
     7
100
AcDbSpline
210
0.0
220
0.0
230
1.0
 70
    24
 71
     3
 72
     8
 73
     4
 74
     0
 42
0.0000000000333667
 43
0.0000000001
 12
1.0
 22
0.0
 32
0.0
 13
1.0
 23
0.0
 33
0.0
 40
0.0
 40
0.0
 40
0.0
 40
0.0
 40
1.0
 40
1.0
 40
1.0
 40
1.0
 10
4758.95206461258
 20
-2826.730912581429
 30
0.0
 10
4758.95206461258
 20
-2826.730912581429
 30
0.0
 10
4459.252126812579
 20
-2826.730912581429
 30
0.0
 10
4459.252126812579
 20
-2826.730912581429
 30
0.0
  0
SPLINE
  5
7D
330
1F
100
AcDbEntity
  8
DV1_Livello_1
  6
Continuous
 62
     7
100
AcDbSpline
210
0.0
220
0.0
230
1.0
 70
    24
 71
     3
 72
     8
 73
     4
 74
     0
 42
0.0000000000333667
 43
0.0000000001
 12
1.0
 22
0.0
 32
0.0
 13
1.0
 23
0.0
 33
0.0
 40
0.0
 40
0.0
 40
0.0
 40
0.0
 40
1.0
 40
1.0
 40
1.0
 40
1.0
 10
4758.95206461258
 20
-2824.715908181428
 30
0.0
 10
4758.95206461258
 20
-2824.715908181428
 30
0.0
 10
4459.252126812579
 20
-2824.715908181428
 30
0.0
 10
4459.252126812579
 20
-2824.715908181428
 30
0.0
  0
SPLINE
  5
7E
330
1F
100
AcDbEntity
  8
DV1_Livello_1
  6
Continuous
 62
     7
100
AcDbSpline
210
0.0
220
0.0
230
1.0
 70
    24
 71
     3
 72
     8
 73
     4
 74
     0
 42
0.0000000001737282
 43
0.0000000001
 12
1.0
 22
0.0
 32
0.0
 13
1.0
 23
0.0
 33
0.0
 40
0.0
 40
0.0
 40
0.0
 40
0.0
 40
1.0
 40
1.0
 40
1.0
 40
1.0
 10
4433.236744512579
 20
-2905.503475181429
 30
0.0
 10
4433.236744512579
 20
-2905.503475181429
 30
0.0
 10
4461.08304711258
 20
-2955.880789781429
 30
0.0
 10
4461.08304711258
 20
-2955.880789781429
 30
0.0
  0
SPLINE
  5
7F
330
1F
100
AcDbEntity
  8
DV1_Livello_1
  6
Continuous
 62
     7
100
AcDbSpline
210
0.0
220
0.0
230
1.0
 70
    24
 71
     3
 72
     8
 73
     4
 74
     0
 42
0.0000000003544696
 43
0.0000000001
 12
1.0
 22
0.0
 32
0.0
 13
1.0
 23
0.0
 33
0.0
 40
0.0
 40
0.0
 40
0.0
 40
0.0
 40
1.0
 40
1.0
 40
1.0
 40
1.0
 10
4461.08304711258
 20
-2955.880789781429
 30
0.0
 10
4461.08304711258
 20
-2955.880789781429
 30
0.0
 10
4432.87188321258
 20
-2955.880789781429
 30
0.0
 10
4432.87188321258
 20
-2955.880789781429
 30
0.0
  0
SPLINE
  5
80
330
1F
100
AcDbEntity
  8
DV1_Livello_1
  6
Continuous
 62
     7
100
AcDbSpline
210
0.0
220
0.0
230
1.0
 70
    24
 71
     3
 72
     8
 73
     4
 74
     0
 42
0.0000000002067726
 43
0.0000000001
 12
1.0
 22
0.0
 32
0.0
 13
1.0
 23
0.0
 33
0.0
 40
0.0
 40
0.0
 40
0.0
 40
0.0
 40
1.0
 40
1.0
 40
1.0
 40
1.0
 10
4459.06804271258
 20
-2836.622952781428
 30
0.0
 10
4459.06804271258
 20
-2836.622952781428
 30
0.0
 10
4459.06804271258
 20
-2884.985262981429
 30
0.0
 10
4459.06804271258
 20
-2884.985262981429
 30
0.0
  0
SPLINE
  5
81
330
1F
100
AcDbEntity
  8
DV1_Livello_1
  6
Continuous
 62
     7
100
AcDbSpline
210
0.0
220
0.0
230
1.0
 70
    24
 71
     3
 72
     8
 73
     4
 74
     0
 42
0.0000000002067726
 43
0.0000000001
 12
1.0
 22
0.0
 32
0.0
 13
1.0
 23
0.0
 33
0.0
 40
0.0
 40
0.0
 40
0.0
 40
0.0
 40
1.0
 40
1.0
 40
1.0
 40
1.0
 10
4438.916896412579
 20
-2884.985262981429
 30
0.0
 10
4438.916896412579
 20
-2884.985262981429
 30
0.0
 10
4438.916896412579
 20
-2836.622952781428
 30
0.0
 10
4438.916896412579
 20
-2836.622952781428
 30
0.0
  0
SPLINE
  5
82
330
1F
100
AcDbEntity
  8
DV1_Livello_1
  6
Continuous
 62
     7
100
AcDbSpline
210
0.0
220
0.0
230
1.0
 70
    24
 71
     3
 72
     8
 73
     4
 74
     0
 42
0.0000000004962497
 43
0.0000000001
 12
1.0
 22
0.0
 32
0.0
 13
1.0
 23
0.0
 33
0.0
 40
0.0
 40
0.0
 40
0.0
 40
0.0
 40
1.0
 40
1.0
 40
1.0
 40
1.0
 10
4459.06804271258
 20
-2884.985262981429
 30
0.0
 10
4459.06804271258
 20
-2884.985262981429
 30
0.0
 10
4438.916896412579
 20
-2884.985262981429
 30
0.0
 10
4438.916896412579
 20
-2884.985262981429
 30
0.0
  0
SPLINE
  5
83
330
1F
100
AcDbEntity
  8
DV1_Livello_1
  6
Continuous
 62
     7
100
AcDbSpline
210
0.0
220
0.0
230
1.0
 70
    24
 71
     3
 72
     8
 73
     4
 74
     0
 42
0.0000000004962497
 43
0.0000000001
 12
1.0
 22
0.0
 32
0.0
 13
1.0
 23
0.0
 33
0.0
 40
0.0
 40
0.0
 40
0.0
 40
0.0
 40
1.0
 40
1.0
 40
1.0
 40
1.0
 10
4438.916896412579
 20
-2836.622952781428
 30
0.0
 10
4438.916896412579
 20
-2836.622952781428
 30
0.0
 10
4459.06804271258
 20
-2836.622952781428
 30
0.0
 10
4459.06804271258
 20
-2836.622952781428
 30
0.0
  0
SPLINE
  5
84
330
1F
100
AcDbEntity
  8
DV1_Livello_1
  6
Continuous
 62
     7
100
AcDbSpline
210
0.0
220
0.0
230
1.0
 70
    24
 71
     3
 72
     8
 73
     4
 74
     0
 42
0.0000000006576729
 43
0.0000000001
 12
1.0
 22
0.0
 32
0.0
 13
1.0
 23
0.0
 33
0.0
 40
0.0
 40
0.0
 40
0.0
 40
0.0
 40
1.0
 40
1.0
 40
1.0
 40
1.0
 10
4758.95206461258
 20
-2884.985262981429
 30
0.0
 10
4758.95206461258
 20
-2884.985262981429
 30
0.0
 10
4758.95206461258
 20
-2869.780136781429
 30
0.0
 10
4758.95206461258
 20
-2869.780136781429
 30
0.0
  0
SPLINE
  5
85
330
1F
100
AcDbEntity
  8
DV1_Livello_1
  6
Continuous
 62
     7
100
AcDbSpline
210
0.0
220
0.0
230
1.0
 70
    24
 71
     3
 72
     8
 73
     4
 74
     0
 42
0.0000000001898418
 43
0.0000000001
 12
1.0
 22
0.0
 32
0.0
 13
1.0
 23
0.0
 33
0.0
 40
0.0
 40
0.0
 40
0.0
 40
0.0
 40
1.0
 40
1.0
 40
1.0
 40
1.0
 10
4853.29681931258
 20
-2905.503475181429
 30
0.0
 10
4853.29681931258
 20
-2905.503475181429
 30
0.0
 10
4837.907609012579
 20
-2955.880789781429
 30
0.0
 10
4837.907609012579
 20
-2955.880789781429
 30
0.0
  0
SPLINE
  5
86
330
1F
100
AcDbEntity
  8
DV1_Livello_1
  6
Continuous
 62
     7
100
AcDbSpline
210
0.0
220
0.0
230
1.0
 70
    24
 71
     3
 72
     8
 73
     4
 74
     0
 42
0.0000000003544696
 43
0.0000000001
 12
1.0
 22
0.0
 32
0.0
 13
1.0
 23
0.0
 33
0.0
 40
0.0
 40
0.0
 40
0.0
 40
0.0
 40
1.0
 40
1.0
 40
1.0
 40
1.0
 10
4866.11877291258
 20
-2955.880789781429
 30
0.0
 10
4866.11877291258
 20
-2955.880789781429
 30
0.0
 10
4837.907609012579
 20
-2955.880789781429
 30
0.0
 10
4837.907609012579
 20
-2955.880789781429
 30
0.0
  0
SPLINE
  5
87
330
1F
100
AcDbEntity
  8
DV1_Livello_1
  6
Continuous
 62
     7
100
AcDbSpline
210
0.0
220
0.0
230
1.0
 70
    24
 71
     3
 72
     8
 73
     4
 74
     0
 42
0.0000000000873394
 43
0.0000000001
 12
1.0
 22
0.0
 32
0.0
 13
1.0
 23
0.0
 33
0.0
 40
0.0
 40
0.0
 40
0.0
 40
0.0
 40
1.0
 40
1.0
 40
1.0
 40
1.0
 10
4738.80091831258
 20
-2347.136717081428
 30
0.0
 10
4738.80091831258
 20
-2347.136717081428
 30
0.0
 10
4853.29681931258
 20
-2347.136717081428
 30
0.0
 10
4853.29681931258
 20
-2347.136717081428
 30
0.0
  0
SPLINE
  5
88
330
1F
100
AcDbEntity
  8
DV1_Livello_1
  6
Continuous
 62
     7
100
AcDbSpline
210
0.0
220
0.0
230
1.0
 70
    24
 71
     3
 72
     8
 73
     4
 74
     0
 42
0.0000000000652587
 43
0.0000000001
 12
1.0
 22
0.0
 32
0.0
 13
1.0
 23
0.0
 33
0.0
 40
0.0
 40
0.0
 40
0.0
 40
0.0
 40
1.0
 40
1.0
 40
1.0
 40
1.0
 10
4747.776947212579
 20
-2533.073783381429
 30
0.0
 10
4747.776947212579
 20
-2533.073783381429
 30
0.0
 10
4842.853629112579
 20
-2412.899935081429
 30
0.0
 10
4842.853629112579
 20
-2412.899935081429
 30
0.0
  0
SPLINE
  5
89
330
1F
100
AcDbEntity
  8
DV1_Livello_1
  6
Continuous
 62
     7
100
AcDbSpline
210
0.0
220
0.0
230
1.0
 70
    24
 71
     3
 72
     8
 73
     4
 74
     0
 42
0.0000000000568847
 43
0.0000000001
 12
1.0
 22
0.0
 32
0.0
 13
1.0
 23
0.0
 33
0.0
 40
0.0
 40
0.0
 40
0.0
 40
0.0
 40
1.0
 40
1.0
 40
1.0
 40
1.0
 10
4694.285635112579
 20
-2318.925553181428
 30
0.0
 10
4694.285635112579
 20
-2318.925553181428
 30
0.0
 10
4842.853629112579
 20
-2412.899935081429
 30
0.0
 10
4842.853629112579
 20
-2412.899935081429
 30
0.0
  0
SPLINE
  5
8A
330
1F
100
AcDbEntity
  8
DV1_Livello_1
  6
Continuous
 62
     7
100
AcDbSpline
210
0.0
220
0.0
230
1.0
 70
    24
 71
     3
 72
     8
 73
     4
 74
     0
 42
0.0000000002550877
 43
0.0000000001
 12
1.0
 22
0.0
 32
0.0
 13
1.0
 23
0.0
 33
0.0
 40
0.0
 40
0.0
 40
0.0
 40
0.0
 40
1.0
 40
1.0
 40
1.0
 40
1.0
 10
4798.15426181258
 20
-2742.278198081428
 30
0.0
 10
4798.15426181258
 20
-2742.278198081428
 30
0.0
 10
4758.95206461258
 20
-2742.278198081428
 30
0.0
 10
4758.95206461258
 20
-2742.278198081428
 30
0.0
  0
SPLINE
  5
8B
330
1F
100
AcDbEntity
  8
DV1_Livello_1
  6
Continuous
 62
     7
100
AcDbSpline
210
0.0
220
0.0
230
1.0
 70
    24
 71
     3
 72
     8
 73
     4
 74
     0
 42
0.0000000000641711
 43
0.0000000001
 12
1.0
 22
0.0
 32
0.0
 13
1.0
 23
0.0
 33
0.0
 40
0.0
 40
0.0
 40
0.0
 40
0.0
 40
1.0
 40
1.0
 40
1.0
 40
1.0
 10
4599.208953212579
 20
-2442.394176181429
 30
0.0
 10
4599.208953212579
 20
-2442.394176181429
 30
0.0
 10
4694.285635112579
 20
-2318.925553181428
 30
0.0
 10
4694.285635112579
 20
-2318.925553181428
 30
0.0
  0
SPLINE
  5
8C
330
1F
100
AcDbEntity
  8
DV1_Livello_1
  6
Continuous
 62
     7
100
AcDbSpline
210
0.0
220
0.0
230
1.0
 70
    24
 71
     3
 72
     8
 73
     4
 74
     0
 42
0.0000000001529013
 43
0.0000000001
 12
1.0
 22
0.0
 32
0.0
 13
1.0
 23
0.0
 33
0.0
 40
0.0
 40
0.0
 40
0.0
 40
0.0
 40
1.0
 40
1.0
 40
1.0
 40
1.0
 10
4459.252126812579
 20
-2377.727746681428
 30
0.0
 10
4459.252126812579
 20
-2377.727746681428
 30
0.0
 10
4459.252126812579
 20
-2443.129410281428
 30
0.0
 10
4459.252126812579
 20
-2443.129410281428
 30
0.0
  0
SPLINE
  5
8D
330
1F
100
AcDbEntity
  8
DV1_Livello_1
  6
Continuous
 62
     7
100
AcDbSpline
210
0.0
220
0.0
230
1.0
 70
    24
 71
     3
 72
     8
 73
     4
 74
     0
 42
0.0000000001324951
 43
0.0000000001
 12
1.0
 22
0.0
 32
0.0
 13
1.0
 23
0.0
 33
0.0
 40
0.0
 40
0.0
 40
0.0
 40
0.0
 40
1.0
 40
1.0
 40
1.0
 40
1.0
 10
4454.12202261258
 20
-2372.781726581429
 30
0.0
 10
4454.12202261258
 20
-2372.781726581429
 30
0.0
 10
4454.12202261258
 20
-2448.256207581428
 30
0.0
 10
4454.12202261258
 20
-2448.256207581428
 30
0.0
  0
SPLINE
  5
8E
330
1F
100
AcDbEntity
  8
DV1_Livello_1
  6
Continuous
 62
     7
100
AcDbSpline
210
0.0
220
0.0
230
1.0
 70
    24
 71
     3
 72
     8
 73
     4
 74
     0
 42
0.0000000006576729
 43
0.0000000001
 12
1.0
 22
0.0
 32
0.0
 13
1.0
 23
0.0
 33
0.0
 40
0.0
 40
0.0
 40
0.0
 40
0.0
 40
1.0
 40
1.0
 40
1.0
 40
1.0
 10
4484.716359112579
 20
-2398.245958881429
 30
0.0
 10
4484.716359112579
 20
-2398.245958881429
 30
0.0
 10
4484.716359112579
 20
-2383.040832681429
 30
0.0
 10
4484.716359112579
 20
-2383.040832681429
 30
0.0
  0
SPLINE
  5
8F
330
1F
100
AcDbEntity
  8
DV1_Livello_1
  6
Continuous
 62
     7
100
AcDbSpline
210
0.0
220
0.0
230
1.0
 70
    24
 71
     3
 72
     8
 73
     4
 74
     0
 42
0.0000000006576729
 43
0.0000000001
 12
1.0
 22
0.0
 32
0.0
 13
1.0
 23
0.0
 33
0.0
 40
0.0
 40
0.0
 40
0.0
 40
0.0
 40
1.0
 40
1.0
 40
1.0
 40
1.0
 10
4469.69201011258
 20
-2383.040832681429
 30
0.0
 10
4469.69201011258
 20
-2383.040832681429
 30
0.0
 10
4469.69201011258
 20
-2398.245958881429
 30
0.0
 10
4469.69201011258
 20
-2398.245958881429
 30
0.0
  0
SPLINE
  5
90
330
1F
100
AcDbEntity
  8
DV1_Livello_1
  6
Continuous
 62
     7
100
AcDbSpline
210
0.0
220
0.0
230
1.0
 70
    24
 71
     3
 72
     8
 73
     4
 74
     0
 42
0.0000000001529013
 43
0.0000000001
 12
1.0
 22
0.0
 32
0.0
 13
1.0
 23
0.0
 33
0.0
 40
0.0
 40
0.0
 40
0.0
 40
0.0
 40
1.0
 40
1.0
 40
1.0
 40
1.0
 10
4549.74764991258
 20
-2443.129410281428
 30
0.0
 10
4549.74764991258
 20
-2443.129410281428
 30
0.0
 10
4549.74764991258
 20
-2377.727746681428
 30
0.0
 10
4549.74764991258
 20
-2377.727746681428
 30
0.0
  0
SPLINE
  5
91
330
1F
100
AcDbEntity
  8
DV1_Livello_1
  6
Continuous
 62
     7
100
AcDbSpline
210
0.0
220
0.0
230
1.0
 70
    24
 71
     3
 72
     8
 73
     4
 74
     0
 42
0.0000000006576729
 43
0.0000000001
 12
1.0
 22
0.0
 32
0.0
 13
1.0
 23
0.0
 33
0.0
 40
0.0
 40
0.0
 40
0.0
 40
0.0
 40
1.0
 40
1.0
 40
1.0
 40
1.0
 10
4539.12368251258
 20
-2398.245958881429
 30
0.0
 10
4539.12368251258
 20
-2398.245958881429
 30
0.0
 10
4539.12368251258
 20
-2383.040832681429
 30
0.0
 10
4539.12368251258
 20
-2383.040832681429
 30
0.0
  0
SPLINE
  5
92
330
1F
100
AcDbEntity
  8
DV1_Livello_1
  6
Continuous
 62
     7
100
AcDbSpline
210
0.0
220
0.0
230
1.0
 70
    24
 71
     3
 72
     8
 73
     4
 74
     0
 42
0.0000000006576729
 43
0.0000000001
 12
1.0
 22
0.0
 32
0.0
 13
1.0
 23
0.0
 33
0.0
 40
0.0
 40
0.0
 40
0.0
 40
0.0
 40
1.0
 40
1.0
 40
1.0
 40
1.0
 10
4524.101538112579
 20
-2383.040832681429
 30
0.0
 10
4524.101538112579
 20
-2383.040832681429
 30
0.0
 10
4524.101538112579
 20
-2398.245958881429
 30
0.0
 10
4524.101538112579
 20
-2398.245958881429
 30
0.0
  0
SPLINE
  5
93
330
1F
100
AcDbEntity
  8
DV1_Livello_1
  6
Continuous
 62
     7
100
AcDbSpline
210
0.0
220
0.0
230
1.0
 70
    24
 71
     3
 72
     8
 73
     4
 74
     0
 42
0.0000000001324951
 43
0.0000000001
 12
1.0
 22
0.0
 32
0.0
 13
1.0
 23
0.0
 33
0.0
 40
0.0
 40
0.0
 40
0.0
 40
0.0
 40
1.0
 40
1.0
 40
1.0
 40
1.0
 10
4554.69367001258
 20
-2448.256207581428
 30
0.0
 10
4554.69367001258
 20
-2448.256207581428
 30
0.0
 10
4554.69367001258
 20
-2372.781726581429
 30
0.0
 10
4554.69367001258
 20
-2372.781726581429
 30
0.0
  0
SPLINE
  5
94
330
1F
100
AcDbEntity
  8
DV1_Livello_1
  6
Continuous
 62
     7
100
AcDbSpline
210
0.0
220
0.0
230
1.0
 70
    24
 71
     3
 72
     8
 73
     4
 74
     0
 42
0.000000000124141
 43
0.0000000001
 12
1.0
 22
0.0
 32
0.0
 13
1.0
 23
0.0
 33
0.0
 40
0.0
 40
0.0
 40
0.0
 40
0.0
 40
1.0
 40
1.0
 40
1.0
 40
1.0
 10
4584.00382701258
 20
-2429.388138481429
 30
0.0
 10
4584.00382701258
 20
-2429.388138481429
 30
0.0
 10
4531.611508012579
 20
-2490.575709181428
 30
0.0
 10
4531.611508012579
 20
-2490.575709181428
 30
0.0
  0
SPLINE
  5
95
330
1F
100
AcDbEntity
  8
DV1_Livello_1
  6
Continuous
 62
     7
100
AcDbSpline
210
0.0
220
0.0
230
1.0
 70
    24
 71
     3
 72
     8
 73
     4
 74
     0
 42
0.0000000003411196
 43
0.0000000001
 12
1.0
 22
0.0
 32
0.0
 13
1.0
 23
0.0
 33
0.0
 40
0.0
 40
0.0
 40
0.0
 40
0.0
 40
1.0
 40
1.0
 40
1.0
 40
1.0
 10
4552.67756331258
 20
-2532.341856181429
 30
0.0
 10
4552.67756331258
 20
-2532.341856181429
 30
0.0
 10
4546.999616012579
 20
-2503.581746881428
 30
0.0
 10
4546.999616012579
 20
-2503.581746881428
 30
0.0
  0
SPLINE
  5
96
330
1F
100
AcDbEntity
  8
DV1_Livello_1
  6
Continuous
 62
     7
100
AcDbSpline
210
0.0
220
0.0
230
1.0
 70
    24
 71
     3
 72
     8
 73
     4
 74
     0
 42
0.0000000004963217
 43
0.0000000001
 12
1.0
 22
0.0
 32
0.0
 13
1.0
 23
0.0
 33
0.0
 40
0.0
 40
0.0
 40
0.0
 40
0.0
 40
1.0
 40
1.0
 40
1.0
 40
1.0
 10
4537.28945531258
 20
-2519.335818481429
 30
0.0
 10
4537.28945531258
 20
-2519.335818481429
 30
0.0
 10
4552.67756331258
 20
-2532.341856181429
 30
0.0
 10
4552.67756331258
 20
-2532.341856181429
 30
0.0
  0
SPLINE
  5
97
330
1F
100
AcDbEntity
  8
DV1_Livello_1
  6
Continuous
 62
     7
100
AcDbSpline
210
0.0
220
0.0
230
1.0
 70
    24
 71
     3
 72
     8
 73
     4
 74
     0
 42
0.0000000004721116
 43
0.0000000001
 12
1.0
 22
0.0
 32
0.0
 13
1.0
 23
0.0
 33
0.0
 40
0.0
 40
0.0
 40
0.0
 40
0.0
 40
1.0
 40
1.0
 40
1.0
 40
1.0
 10
4560.738683212579
 20
-2487.460609381429
 30
0.0
 10
4560.738683212579
 20
-2487.460609381429
 30
0.0
 10
4546.999616012579
 20
-2503.581746881428
 30
0.0
 10
4546.999616012579
 20
-2503.581746881428
 30
0.0
  0
SPLINE
  5
98
330
1F
100
AcDbEntity
  8
DV1_Livello_1
  6
Continuous
 62
     7
100
AcDbSpline
210
0.0
220
0.0
230
1.0
 70
    24
 71
     3
 72
     8
 73
     4
 74
     0
 42
0.0000000001243481
 43
0.0000000001
 12
1.0
 22
0.0
 32
0.0
 13
1.0
 23
0.0
 33
0.0
 40
0.0
 40
0.0
 40
0.0
 40
0.0
 40
1.0
 40
1.0
 40
1.0
 40
1.0
 10
4475.189180212579
 20
-2594.261354081429
 30
0.0
 10
4475.189180212579
 20
-2594.261354081429
 30
0.0
 10
4555.60857901258
 20
-2594.261354081429
 30
0.0
 10
4555.60857901258
 20
-2594.261354081429
 30
0.0
  0
SPLINE
  5
99
330
1F
100
AcDbEntity
  8
DV1_Livello_1
  6
Continuous
 62
     7
100
AcDbSpline
210
0.0
220
0.0
230
1.0
 70
    24
 71
     3
 72
     8
 73
     4
 74
     0
 42
0.0000000000994316
 43
0.0000000001
 12
1.0
 22
0.0
 32
0.0
 13
1.0
 23
0.0
 33
0.0
 40
0.0
 40
0.0
 40
0.0
 40
0.0
 40
1.0
 40
1.0
 40
1.0
 40
1.0
 10
4454.12202261258
 20
-2448.256207581428
 30
0.0
 10
4454.12202261258
 20
-2448.256207581428
 30
0.0
 10
4554.69367001258
 20
-2448.256207581428
 30
0.0
 10
4554.69367001258
 20
-2448.256207581428
 30
0.0
  0
SPLINE
  5
9A
330
1F
100
AcDbEntity
  8
DV1_Livello_1
  6
Continuous
 62
     7
100
AcDbSpline
210
0.0
220
0.0
230
1.0
 70
    24
 71
     3
 72
     8
 73
     4
 74
     0
 42
0.0000000000316635
 43
0.0000000001
 12
1.0
 22
0.0
 32
0.0
 13
1.0
 23
0.0
 33
0.0
 40
0.0
 40
0.0
 40
0.0
 40
0.0
 40
1.0
 40
1.0
 40
1.0
 40
1.0
 10
4758.95206461258
 20
-2758.399335581429
 30
0.0
 10
4758.95206461258
 20
-2758.399335581429
 30
0.0
 10
4443.130989312579
 20
-2758.399335581429
 30
0.0
 10
4443.130989312579
 20
-2758.399335581429
 30
0.0
  0
SPLINE
  5
9B
330
1F
100
AcDbEntity
  8
DV1_Livello_1
  6
Continuous
 62
     7
100
AcDbSpline
210
0.0
220
0.0
230
1.0
 70
    24
 71
     3
 72
     8
 73
     4
 74
     0
 42
0.0000000000333667
 43
0.0000000001
 12
1.0
 22
0.0
 32
0.0
 13
1.0
 23
0.0
 33
0.0
 40
0.0
 40
0.0
 40
0.0
 40
0.0
 40
1.0
 40
1.0
 40
1.0
 40
1.0
 10
4758.95206461258
 20
-2774.519370781428
 30
0.0
 10
4758.95206461258
 20
-2774.519370781428
 30
0.0
 10
4459.252126812579
 20
-2774.519370781428
 30
0.0
 10
4459.252126812579
 20
-2774.519370781428
 30
0.0
  0
SPLINE
  5
9C
330
1F
100
AcDbEntity
  8
DV1_Livello_1
  6
Continuous
 62
     7
100
AcDbSpline
210
0.0
220
0.0
230
1.0
 70
     8
 71
     3
 72
   156
 73
   152
 74
     0
 42
0.0000000000482993
 43
0.0000000001
 12
1.0
 22
0.0
 32
0.0
 13
1.0
 23
0.0
 33
0.0
 40
0.0
 40
0.0
 40
0.0
 40
0.0
 40
0.0133333333333333
 40
0.0133333333333333
 40
0.0266666666666667
 40
0.0266666666666667
 40
0.04
 40
0.04
 40
0.0533333333333333
 40
0.0533333333333333
 40
0.0666666666666667
 40
0.0666666666666667
 40
0.08
 40
0.08
 40
0.0933333333333333
 40
0.0933333333333333
 40
0.1066666666666667
 40
0.1066666666666667
 40
0.12
 40
0.12
 40
0.1333333333333333
 40
0.1333333333333333
 40
0.1466666666666667
 40
0.1466666666666667
 40
0.16
 40
0.16
 40
0.1733333333333333
 40
0.1733333333333333
 40
0.1866666666666667
 40
0.1866666666666667
 40
0.2
 40
0.2
 40
0.2133333333333334
 40
0.2133333333333334
 40
0.2266666666666667
 40
0.2266666666666667
 40
0.24
 40
0.24
 40
0.2533333333333334
 40
0.2533333333333334
 40
0.2666666666666667
 40
0.2666666666666667
 40
0.28
 40
0.28
 40
0.2933333333333333
 40
0.2933333333333333
 40
0.3066666666666666
 40
0.3066666666666666
 40
0.3199999999999999
 40
0.3199999999999999
 40
0.3333333333333332
 40
0.3333333333333332
 40
0.3466666666666665
 40
0.3466666666666665
 40
0.3599999999999998
 40
0.3599999999999998
 40
0.3733333333333331
 40
0.3733333333333331
 40
0.3866666666666664
 40
0.3866666666666664
 40
0.3999999999999997
 40
0.3999999999999997
 40
0.4133333333333331
 40
0.4133333333333331
 40
0.4266666666666664
 40
0.4266666666666664
 40
0.4399999999999997
 40
0.4399999999999997
 40
0.453333333333333
 40
0.453333333333333
 40
0.4666666666666663
 40
0.4666666666666663
 40
0.4799999999999996
 40
0.4799999999999996
 40
0.4933333333333329
 40
0.4933333333333329
 40
0.5066666666666663
 40
0.5066666666666663
 40
0.5199999999999996
 40
0.5199999999999996
 40
0.5333333333333329
 40
0.5333333333333329
 40
0.5466666666666662
 40
0.5466666666666662
 40
0.5599999999999995
 40
0.5599999999999995
 40
0.5733333333333328
 40
0.5733333333333328
 40
0.5866666666666661
 40
0.5866666666666661
 40
0.5999999999999994
 40
0.5999999999999994
 40
0.6133333333333327
 40
0.6133333333333327
 40
0.626666666666666
 40
0.626666666666666
 40
0.6399999999999993
 40
0.6399999999999993
 40
0.6533333333333327
 40
0.6533333333333327
 40
0.666666666666666
 40
0.666666666666666
 40
0.6799999999999993
 40
0.6799999999999993
 40
0.6933333333333326
 40
0.6933333333333326
 40
0.7066666666666659
 40
0.7066666666666659
 40
0.7199999999999992
 40
0.7199999999999992
 40
0.7333333333333325
 40
0.7333333333333325
 40
0.7466666666666658
 40
0.7466666666666658
 40
0.7599999999999991
 40
0.7599999999999991
 40
0.7733333333333324
 40
0.7733333333333324
 40
0.7866666666666657
 40
0.7866666666666657
 40
0.799999999999999
 40
0.799999999999999
 40
0.8133333333333324
 40
0.8133333333333324
 40
0.8266666666666657
 40
0.8266666666666657
 40
0.839999999999999
 40
0.839999999999999
 40
0.8533333333333323
 40
0.8533333333333323
 40
0.8666666666666656
 40
0.8666666666666656
 40
0.8799999999999989
 40
0.8799999999999989
 40
0.8933333333333322
 40
0.8933333333333322
 40
0.9066666666666655
 40
0.9066666666666655
 40
0.9199999999999988
 40
0.9199999999999988
 40
0.9333333333333321
 40
0.9333333333333321
 40
0.9466666666666654
 40
0.9466666666666654
 40
0.9599999999999987
 40
0.9599999999999987
 40
0.973333333333332
 40
0.973333333333332
 40
0.9866666666666654
 40
0.9866666666666654
 40
1.0
 40
1.0
 40
1.0
 40
1.0
 10
4555.42780181258
 20
-2594.628419981429
 30
0.0
 10
4555.42780181258
 20
-2594.628419981429
 30
0.0
 10
4553.96064051258
 20
-2597.008285681428
 30
0.0
 10
4553.96064051258
 20
-2597.008285681428
 30
0.0
 10
4552.67756331258
 20
-2599.390355981428
 30
0.0
 10
4552.67756331258
 20
-2599.390355981428
 30
0.0
 10
4551.397793012579
 20
-2601.954305781429
 30
0.0
 10
4551.397793012579
 20
-2601.954305781429
 30
0.0
 10
4550.11471581258
 20
-2604.336376081429
 30
0.0
 10
4550.11471581258
 20
-2604.336376081429
 30
0.0
 10
4549.19870451258
 20
-2606.900325881429
 30
0.0
 10
4549.19870451258
 20
-2606.900325881429
 30
0.0
 10
4548.09971141258
 20
-2609.466480281429
 30
0.0
 10
4548.09971141258
 20
-2609.466480281429
 30
0.0
 10
4547.36447731258
 20
-2612.213411881429
 30
0.0
 10
4547.36447731258
 20
-2612.213411881429
 30
0.0
 10
4546.632550112579
 20
-2614.779566281428
 30
0.0
 10
4546.632550112579
 20
-2614.779566281428
 30
0.0
 10
4545.90062291258
 20
-2617.526497881428
 30
0.0
 10
4545.90062291258
 20
-2617.526497881428
 30
0.0
 10
4545.34947291258
 20
-2620.273429481429
 30
0.0
 10
4545.34947291258
 20
-2620.273429481429
 30
0.0
 10
4544.98461161258
 20
-2623.020361081429
 30
0.0
 10
4544.98461161258
 20
-2623.020361081429
 30
0.0
 10
4544.61754571258
 20
-2625.586515481428
 30
0.0
 10
4544.61754571258
 20
-2625.586515481428
 30
0.0
 10
4544.43456391258
 20
-2628.517531181429
 30
0.0
 10
4544.43456391258
 20
-2628.517531181429
 30
0.0
 10
4544.25268441258
 20
-2631.264462781428
 30
0.0
 10
4544.25268441258
 20
-2631.264462781428
 30
0.0
 10
4544.25268441258
 20
-2634.014701281429
 30
0.0
 10
4544.25268441258
 20
-2634.014701281429
 30
0.0
 10
4544.43456391258
 20
-2636.761632881428
 30
0.0
 10
4544.43456391258
 20
-2636.761632881428
 30
0.0
 10
4544.61754571258
 20
-2639.508564481428
 30
0.0
 10
4544.61754571258
 20
-2639.508564481428
 30
0.0
 10
4544.98461161258
 20
-2642.255496081428
 30
0.0
 10
4544.98461161258
 20
-2642.255496081428
 30
0.0
 10
4545.34947291258
 20
-2644.821650481429
 30
0.0
 10
4545.34947291258
 20
-2644.821650481429
 30
0.0
 10
4545.90062291258
 20
-2647.568582081429
 30
0.0
 10
4545.90062291258
 20
-2647.568582081429
 30
0.0
 10
4546.632550112579
 20
-2650.316615981429
 30
0.0
 10
4546.632550112579
 20
-2650.316615981429
 30
0.0
 10
4547.36447731258
 20
-2652.882770381429
 30
0.0
 10
4547.36447731258
 20
-2652.882770381429
 30
0.0
 10
4548.09971141258
 20
-2655.629701981428
 30
0.0
 10
4548.09971141258
 20
-2655.629701981428
 30
0.0
 10
4549.19870451258
 20
-2658.195856381429
 30
0.0
 10
4549.19870451258
 20
-2658.195856381429
 30
0.0
 10
4550.11471581258
 20
-2660.758703881429
 30
0.0
 10
4550.11471581258
 20
-2660.758703881429
 30
0.0
 10
4551.397793012579
 20
-2663.141876481428
 30
0.0
 10
4551.397793012579
 20
-2663.141876481428
 30
0.0
 10
4552.67756331258
 20
-2665.704723981428
 30
0.0
 10
4552.67756331258
 20
-2665.704723981428
 30
0.0
 10
4553.96064051258
 20
-2668.086794281428
 30
0.0
 10
4553.96064051258
 20
-2668.086794281428
 30
0.0
 10
4555.42780181258
 20
-2670.467762281428
 30
0.0
 10
4555.42780181258
 20
-2670.467762281428
 30
0.0
 10
4556.89165621258
 20
-2672.665748481429
 30
0.0
 10
4556.89165621258
 20
-2672.665748481429
 30
0.0
 10
4558.539594712579
 20
-2675.047818781429
 30
0.0
 10
4558.539594712579
 20
-2675.047818781429
 30
0.0
 10
4560.18973781258
 20
-2677.062823181428
 30
0.0
 10
4560.18973781258
 20
-2677.062823181428
 30
0.0
 10
4562.02176041258
 20
-2679.261911681429
 30
0.0
 10
4562.02176041258
 20
-2679.261911681429
 30
0.0
 10
4563.852680712579
 20
-2681.276916081429
 30
0.0
 10
4563.852680712579
 20
-2681.276916081429
 30
0.0
 10
4565.86768511258
 20
-2683.291920481428
 30
0.0
 10
4565.86768511258
 20
-2683.291920481428
 30
0.0
 10
4567.882689512579
 20
-2685.123943081428
 30
0.0
 10
4567.882689512579
 20
-2685.123943081428
 30
0.0
 10
4569.89769391258
 20
-2686.954863381429
 30
0.0
 10
4569.89769391258
 20
-2686.954863381429
 30
0.0
 10
4572.096782412579
 20
-2688.602801881428
 30
0.0
 10
4572.096782412579
 20
-2688.602801881428
 30
0.0
 10
4574.29587091258
 20
-2690.252944981428
 30
0.0
 10
4574.29587091258
 20
-2690.252944981428
 30
0.0
 10
4576.675736612579
 20
-2691.717901681429
 30
0.0
 10
4576.675736612579
 20
-2691.717901681429
 30
0.0
 10
4578.87482511258
 20
-2693.183960681428
 30
0.0
 10
4578.87482511258
 20
-2693.183960681428
 30
0.0
 10
4581.256895412579
 20
-2694.651121981428
 30
0.0
 10
4581.256895412579
 20
-2694.651121981428
 30
0.0
 10
4583.819742912579
 20
-2695.930892281428
 30
0.0
 10
4583.819742912579
 20
-2695.930892281428
 30
0.0
 10
4586.38589731258
 20
-2697.030987681429
 30
0.0
 10
4586.38589731258
 20
-2697.030987681429
 30
0.0
 10
4588.76796761258
 20
-2698.129980781429
 30
0.0
 10
4588.76796761258
 20
-2698.129980781429
 30
0.0
 10
4591.516001512579
 20
-2699.045992081428
 30
0.0
 10
4591.516001512579
 20
-2699.045992081428
 30
0.0
 10
4594.07884901258
 20
-2699.962003381429
 30
0.0
 10
4594.07884901258
 20
-2699.962003381429
 30
0.0
 10
4596.64500341258
 20
-2700.696135181428
 30
0.0
 10
4596.64500341258
 20
-2700.696135181428
 30
0.0
 10
4599.391935012579
 20
-2701.243978281429
 30
0.0
 10
4599.391935012579
 20
-2701.243978281429
 30
0.0
 10
4602.13996891258
 20
-2701.792923681428
 30
0.0
 10
4602.13996891258
 20
-2701.792923681428
 30
0.0
 10
4604.70612331258
 20
-2702.344073681429
 30
0.0
 10
4604.70612331258
 20
-2702.344073681429
 30
0.0
 10
4607.45305491258
 20
-2702.711139581429
 30
0.0
 10
4607.45305491258
 20
-2702.711139581429
 30
0.0
 10
4610.19998651258
 20
-2702.891916781429
 30
0.0
 10
4610.19998651258
 20
-2702.891916781429
 30
0.0
 10
4612.949122712579
 20
-2702.891916781429
 30
0.0
 10
4612.949122712579
 20
-2702.891916781429
 30
0.0
 10
4615.697156612579
 20
-2703.076000881429
 30
0.0
 10
4615.697156612579
 20
-2703.076000881429
 30
0.0
 10
4618.62707001258
 20
-2702.891916781429
 30
0.0
 10
4618.62707001258
 20
-2702.891916781429
 30
0.0
 10
4621.375103912579
 20
-2702.711139581429
 30
0.0
 10
4621.375103912579
 20
-2702.711139581429
 30
0.0
 10
4623.94125831258
 20
-2702.344073681429
 30
0.0
 10
4623.94125831258
 20
-2702.344073681429
 30
0.0
 10
4626.688189912579
 20
-2701.977007781429
 30
0.0
 10
4626.688189912579
 20
-2701.977007781429
 30
0.0
 10
4629.43512151258
 20
-2701.428062381428
 30
0.0
 10
4629.43512151258
 20
-2701.428062381428
 30
0.0
 10
4632.18425771258
 20
-2700.876912381429
 30
0.0
 10
4632.18425771258
 20
-2700.876912381429
 30
0.0
 10
4634.74820751258
 20
-2700.144985181429
 30
0.0
 10
4634.74820751258
 20
-2700.144985181429
 30
0.0
 10
4637.49513911258
 20
-2699.228973881428
 30
0.0
 10
4637.49513911258
 20
-2699.228973881428
 30
0.0
 10
4640.06129351258
 20
-2698.314064881429
 30
0.0
 10
4640.06129351258
 20
-2698.314064881429
 30
0.0
 10
4642.625243312579
 20
-2697.213969481429
 30
0.0
 10
4642.625243312579
 20
-2697.213969481429
 30
0.0
 10
4645.00731361258
 20
-2696.114976381429
 30
0.0
 10
4645.00731361258
 20
-2696.114976381429
 30
0.0
 10
4647.57126341258
 20
-2694.831899181429
 30
0.0
 10
4647.57126341258
 20
-2694.831899181429
 30
0.0
 10
4649.953333712579
 20
-2693.551026581428
 30
0.0
 10
4649.953333712579
 20
-2693.551026581428
 30
0.0
 10
4652.33540401258
 20
-2692.084967581429
 30
0.0
 10
4652.33540401258
 20
-2692.084967581429
 30
0.0
 10
4654.53228791258
 20
-2690.617806281429
 30
0.0
 10
4654.53228791258
 20
-2690.617806281429
 30
0.0
 10
4656.914358212579
 20
-2688.969867781429
 30
0.0
 10
4656.914358212579
 20
-2688.969867781429
 30
0.0
 10
4658.92936261258
 20
-2687.321929281429
 30
0.0
 10
4658.92936261258
 20
-2687.321929281429
 30
0.0
 10
4661.12845111258
 20
-2685.491008981428
 30
0.0
 10
4661.12845111258
 20
-2685.491008981428
 30
0.0
 10
4663.14345551258
 20
-2683.656781781428
 30
0.0
 10
4663.14345551258
 20
-2683.656781781428
 30
0.0
 10
4665.15845991258
 20
-2681.641777381429
 30
0.0
 10
4665.15845991258
 20
-2681.641777381429
 30
0.0
  0
SPLINE
  5
9D
330
1F
100
AcDbEntity
  8
DV1_Livello_1
  6
Continuous
 62
     7
100
AcDbSpline
210
0.0
220
0.0
230
1.0
 70
    24
 71
     3
 72
     8
 73
     4
 74
     0
 42
0.0000000001105027
 43
0.0000000001
 12
1.0
 22
0.0
 32
0.0
 13
1.0
 23
0.0
 33
0.0
 40
0.0
 40
0.0
 40
0.0
 40
0.0
 40
1.0
 40
1.0
 40
1.0
 40
1.0
 10
4549.74764991258
 20
-2443.129410281428
 30
0.0
 10
4549.74764991258
 20
-2443.129410281428
 30
0.0
 10
4459.252126812579
 20
-2443.129410281428
 30
0.0
 10
4459.252126812579
 20
-2443.129410281428
 30
0.0
  0
SPLINE
  5
9E
330
1F
100
AcDbEntity
  8
DV1_Livello_1
  6
Continuous
 62
     7
100
AcDbSpline
210
0.0
220
0.0
230
1.0
 70
    24
 71
     3
 72
     8
 73
     4
 74
     0
 42
0.000000000102707
 43
0.0000000001
 12
1.0
 22
0.0
 32
0.0
 13
1.0
 23
0.0
 33
0.0
 40
0.0
 40
0.0
 40
0.0
 40
0.0
 40
1.0
 40
1.0
 40
1.0
 40
1.0
 10
4505.78241441258
 20
-2693.915887881428
 30
0.0
 10
4505.78241441258
 20
-2693.915887881428
 30
0.0
 10
4518.421386212579
 20
-2597.375351581428
 30
0.0
 10
4518.421386212579
 20
-2597.375351581428
 30
0.0
  0
SPLINE
  5
9F
330
1F
100
AcDbEntity
  8
DV1_Livello_1
  6
Continuous
 62
     7
100
AcDbSpline
210
0.0
220
0.0
230
1.0
 70
    24
 71
     3
 72
     8
 73
     4
 74
     0
 42
0.0000000001112257
 43
0.0000000001
 12
1.0
 22
0.0
 32
0.0
 13
1.0
 23
0.0
 33
0.0
 40
0.0
 40
0.0
 40
0.0
 40
0.0
 40
1.0
 40
1.0
 40
1.0
 40
1.0
 10
4443.130989312579
 20
-2758.399335581429
 30
0.0
 10
4443.130989312579
 20
-2758.399335581429
 30
0.0
 10
4505.78241441258
 20
-2693.915887881428
 30
0.0
 10
4505.78241441258
 20
-2693.915887881428
 30
0.0
  0
SPLINE
  5
A0
330
1F
100
AcDbEntity
  8
DV1_Livello_1
  6
Continuous
 62
     7
100
AcDbSpline
210
0.0
220
0.0
230
1.0
 70
    24
 71
     3
 72
     8
 73
     4
 74
     0
 42
0.000000000620346
 43
0.0000000001
 12
1.0
 22
0.0
 32
0.0
 13
1.0
 23
0.0
 33
0.0
 40
0.0
 40
0.0
 40
0.0
 40
0.0
 40
1.0
 40
1.0
 40
1.0
 40
1.0
 10
4459.252126812579
 20
-2774.519370781428
 30
0.0
 10
4459.252126812579
 20
-2774.519370781428
 30
0.0
 10
4459.252126812579
 20
-2758.399335581429
 30
0.0
 10
4459.252126812579
 20
-2758.399335581429
 30
0.0
  0
SPLINE
  5
A1
330
1F
100
AcDbEntity
  8
DV1_Livello_1
  6
Continuous
 62
     7
100
AcDbSpline
210
0.0
220
0.0
230
1.0
 70
    24
 71
     3
 72
     8
 73
     4
 74
     0
 42
0.0000000004962497
 43
0.0000000001
 12
1.0
 22
0.0
 32
0.0
 13
1.0
 23
0.0
 33
0.0
 40
0.0
 40
0.0
 40
0.0
 40
0.0
 40
1.0
 40
1.0
 40
1.0
 40
1.0
 10
4438.916896412579
 20
-2762.248567181428
 30
0.0
 10
4438.916896412579
 20
-2762.248567181428
 30
0.0
 10
4459.06804271258
 20
-2762.248567181428
 30
0.0
 10
4459.06804271258
 20
-2762.248567181428
 30
0.0
  0
SPLINE
  5
A2
330
1F
100
AcDbEntity
  8
DV1_Livello_1
  6
Continuous
 62
     7
100
AcDbSpline
210
0.0
220
0.0
230
1.0
 70
    24
 71
     3
 72
     8
 73
     4
 74
     0
 42
0.0000000003411196
 43
0.0000000001
 12
1.0
 22
0.0
 32
0.0
 13
1.0
 23
0.0
 33
0.0
 40
0.0
 40
0.0
 40
0.0
 40
0.0
 40
1.0
 40
1.0
 40
1.0
 40
1.0
 10
4531.611508012579
 20
-2490.575709181428
 30
0.0
 10
4531.611508012579
 20
-2490.575709181428
 30
0.0
 10
4537.28945531258
 20
-2519.335818481429
 30
0.0
 10
4537.28945531258
 20
-2519.335818481429
 30
0.0
  0
SPLINE
  5
A3
330
1F
100
AcDbEntity
  8
DV1_Livello_1
  6
Continuous
 62
     7
100
AcDbSpline
210
0.0
220
0.0
230
1.0
 70
    24
 71
     3
 72
     8
 73
     4
 74
     0
 42
0.0000000004963217
 43
0.0000000001
 12
1.0
 22
0.0
 32
0.0
 13
1.0
 23
0.0
 33
0.0
 40
0.0
 40
0.0
 40
0.0
 40
0.0
 40
1.0
 40
1.0
 40
1.0
 40
1.0
 10
4531.611508012579
 20
-2490.575709181428
 30
0.0
 10
4531.611508012579
 20
-2490.575709181428
 30
0.0
 10
4546.999616012579
 20
-2503.581746881428
 30
0.0
 10
4546.999616012579
 20
-2503.581746881428
 30
0.0
  0
SPLINE
  5
A4
330
1F
100
AcDbEntity
  8
DV1_Livello_1
  6
Continuous
 62
     7
100
AcDbSpline
210
0.0
220
0.0
230
1.0
 70
    24
 71
     3
 72
     8
 73
     4
 74
     0
 42
0.0000000003984689
 43
0.0000000001
 12
1.0
 22
0.0
 32
0.0
 13
1.0
 23
0.0
 33
0.0
 40
0.0
 40
0.0
 40
0.0
 40
0.0
 40
1.0
 40
1.0
 40
1.0
 40
1.0
 10
4500.285244312579
 20
-2594.261354081429
 30
0.0
 10
4500.285244312579
 20
-2594.261354081429
 30
0.0
 10
4475.189180212579
 20
-2594.261354081429
 30
0.0
 10
4475.189180212579
 20
-2594.261354081429
 30
0.0
  0
SPLINE
  5
A5
330
1F
100
AcDbEntity
  8
DV1_Livello_1
  6
Continuous
 62
     7
100
AcDbSpline
210
0.0
220
0.0
230
1.0
 70
    24
 71
     3
 72
     8
 73
     4
 74
     0
 42
0.0000000004962768
 43
0.0000000001
 12
1.0
 22
0.0
 32
0.0
 13
1.0
 23
0.0
 33
0.0
 40
0.0
 40
0.0
 40
0.0
 40
0.0
 40
1.0
 40
1.0
 40
1.0
 40
1.0
 10
4475.189180212579
 20
-2568.980103581428
 30
0.0
 10
4475.189180212579
 20
-2568.980103581428
 30
0.0
 10
4495.339224212579
 20
-2568.980103581428
 30
0.0
 10
4495.339224212579
 20
-2568.980103581428
 30
0.0
  0
SPLINE
  5
A6
330
1F
100
AcDbEntity
  8
DV1_Livello_1
  6
Continuous
 62
     7
100
AcDbSpline
210
0.0
220
0.0
230
1.0
 70
    24
 71
     3
 72
     8
 73
     4
 74
     0
 42
0.0000000003955501
 43
0.0000000001
 12
1.0
 22
0.0
 32
0.0
 13
1.0
 23
0.0
 33
0.0
 40
0.0
 40
0.0
 40
0.0
 40
0.0
 40
1.0
 40
1.0
 40
1.0
 40
1.0
 10
4475.189180212579
 20
-2594.261354081429
 30
0.0
 10
4475.189180212579
 20
-2594.261354081429
 30
0.0
 10
4475.189180212579
 20
-2568.980103581428
 30
0.0
 10
4475.189180212579
 20
-2568.980103581428
 30
0.0
  0
SPLINE
  5
A7
330
1F
100
AcDbEntity
  8
DV1_Livello_1
  6
Continuous
 62
     7
100
AcDbSpline
210
0.0
220
0.0
230
1.0
 70
    24
 71
     3
 72
     8
 73
     4
 74
     0
 42
0.0000000001291112
 43
0.0000000001
 12
1.0
 22
0.0
 32
0.0
 13
1.0
 23
0.0
 33
0.0
 40
0.0
 40
0.0
 40
0.0
 40
0.0
 40
1.0
 40
1.0
 40
1.0
 40
1.0
 10
4518.421386212579
 20
-2597.375351581428
 30
0.0
 10
4518.421386212579
 20
-2597.375351581428
 30
0.0
 10
4542.969607212579
 20
-2523.915874981428
 30
0.0
 10
4542.969607212579
 20
-2523.915874981428
 30
0.0
  0
SPLINE
  5
A8
330
1F
100
AcDbEntity
  8
DV1_Livello_1
  6
Continuous
 62
     7
100
AcDbSpline
210
0.0
220
0.0
230
1.0
 70
    24
 71
     3
 72
     8
 73
     4
 74
     0
 42
0.0000000003955501
 43
0.0000000001
 12
1.0
 22
0.0
 32
0.0
 13
1.0
 23
0.0
 33
0.0
 40
0.0
 40
0.0
 40
0.0
 40
0.0
 40
1.0
 40
1.0
 40
1.0
 40
1.0
 10
4495.339224212579
 20
-2568.980103581428
 30
0.0
 10
4495.339224212579
 20
-2568.980103581428
 30
0.0
 10
4495.339224212579
 20
-2594.261354081429
 30
0.0
 10
4495.339224212579
 20
-2594.261354081429
 30
0.0
  0
SPLINE
  5
A9
330
1F
100
AcDbEntity
  8
DV1_Livello_1
  6
Continuous
 62
     7
100
AcDbSpline
210
0.0
220
0.0
230
1.0
 70
    24
 71
     3
 72
     8
 73
     4
 74
     0
 42
0.0000000006655862
 43
0.0000000001
 12
1.0
 22
0.0
 32
0.0
 13
1.0
 23
0.0
 33
0.0
 40
0.0
 40
0.0
 40
0.0
 40
0.0
 40
1.0
 40
1.0
 40
1.0
 40
1.0
 10
4469.69201011258
 20
-2398.245958881429
 30
0.0
 10
4469.69201011258
 20
-2398.245958881429
 30
0.0
 10
4484.716359112579
 20
-2398.245958881429
 30
0.0
 10
4484.716359112579
 20
-2398.245958881429
 30
0.0
  0
SPLINE
  5
AA
330
1F
100
AcDbEntity
  8
DV1_Livello_1
  6
Continuous
 62
     7
100
AcDbSpline
210
0.0
220
0.0
230
1.0
 70
    24
 71
     3
 72
     8
 73
     4
 74
     0
 42
0.0000000006656839
 43
0.0000000001
 12
1.0
 22
0.0
 32
0.0
 13
1.0
 23
0.0
 33
0.0
 40
0.0
 40
0.0
 40
0.0
 40
0.0
 40
1.0
 40
1.0
 40
1.0
 40
1.0
 10
4524.101538112579
 20
-2398.245958881429
 30
0.0
 10
4524.101538112579
 20
-2398.245958881429
 30
0.0
 10
4539.12368251258
 20
-2398.245958881429
 30
0.0
 10
4539.12368251258
 20
-2398.245958881429
 30
0.0
  0
SPLINE
  5
AB
330
1F
100
AcDbEntity
  8
DV1_Livello_1
  6
Continuous
 62
     7
100
AcDbSpline
210
0.0
220
0.0
230
1.0
 70
    24
 71
     3
 72
     8
 73
     4
 74
     0
 42
0.0000000002948386
 43
0.0000000001
 12
1.0
 22
0.0
 32
0.0
 13
1.0
 23
0.0
 33
0.0
 40
0.0
 40
0.0
 40
0.0
 40
0.0
 40
1.0
 40
1.0
 40
1.0
 40
1.0
 10
4763.34913931258
 20
-2612.213411881429
 30
0.0
 10
4763.34913931258
 20
-2612.213411881429
 30
0.0
 10
4785.331205912579
 20
-2586.384318281428
 30
0.0
 10
4785.331205912579
 20
-2586.384318281428
 30
0.0
  0
SPLINE
  5
AC
330
1F
100
AcDbEntity
  8
DV1_Livello_1
  6
Continuous
 62
     7
100
AcDbSpline
210
0.0
220
0.0
230
1.0
 70
    24
 71
     3
 72
     8
 73
     4
 74
     0
 42
0.0000000000994408
 43
0.0000000001
 12
1.0
 22
0.0
 32
0.0
 13
1.0
 23
0.0
 33
0.0
 40
0.0
 40
0.0
 40
0.0
 40
0.0
 40
1.0
 40
1.0
 40
1.0
 40
1.0
 10
4747.776947212579
 20
-2533.073783381429
 30
0.0
 10
4747.776947212579
 20
-2533.073783381429
 30
0.0
 10
4682.37859051258
 20
-2609.466480281429
 30
0.0
 10
4682.37859051258
 20
-2609.466480281429
 30
0.0
  0
SPLINE
  5
AD
330
1F
100
AcDbEntity
  8
DV1_Livello_1
  6
Continuous
 62
     7
100
AcDbSpline
210
0.0
220
0.0
230
1.0
 70
    24
 71
     3
 72
     8
 73
     4
 74
     0
 42
0.0000000002840106
 43
0.0000000001
 12
1.0
 22
0.0
 32
0.0
 13
1.0
 23
0.0
 33
0.0
 40
0.0
 40
0.0
 40
0.0
 40
0.0
 40
1.0
 40
1.0
 40
1.0
 40
1.0
 10
4682.37859051258
 20
-2609.466480281429
 30
0.0
 10
4682.37859051258
 20
-2609.466480281429
 30
0.0
 10
4705.276668412579
 20
-2582.719170781429
 30
0.0
 10
4705.276668412579
 20
-2582.719170781429
 30
0.0
  0
SPLINE
  5
AE
330
1F
100
AcDbEntity
  8
DV1_Livello_1
  6
Continuous
 62
     7
100
AcDbSpline
210
0.0
220
0.0
230
1.0
 70
    11
 71
     3
 72
    94
 73
    90
 74
     0
 42
0.0000000003189372
 43
0.0000000001
 12
1.0
 22
0.0
 32
0.0
 13
1.0
 23
0.0
 33
0.0
 40
0.0
 40
0.0
 40
0.0
 40
0.0
 40
0.0227272727272727
 40
0.0227272727272727
 40
0.0454545454545455
 40
0.0454545454545455
 40
0.0681818181818182
 40
0.0681818181818182
 40
0.0909090909090909
 40
0.0909090909090909
 40
0.1136363636363637
 40
0.1136363636363637
 40
0.1363636363636364
 40
0.1363636363636364
 40
0.1590909090909091
 40
0.1590909090909091
 40
0.1818181818181819
 40
0.1818181818181819
 40
0.2045454545454546
 40
0.2045454545454546
 40
0.2272727272727273
 40
0.2272727272727273
 40
0.2500000000000001
 40
0.2500000000000001
 40
0.2727272727272728
 40
0.2727272727272728
 40
0.2954545454545455
 40
0.2954545454545455
 40
0.3181818181818182
 40
0.3181818181818182
 40
0.3409090909090909
 40
0.3409090909090909
 40
0.3636363636363636
 40
0.3636363636363636
 40
0.3863636363636363
 40
0.3863636363636363
 40
0.409090909090909
 40
0.409090909090909
 40
0.4318181818181817
 40
0.4318181818181817
 40
0.4545454545454544
 40
0.4545454545454544
 40
0.4772727272727271
 40
0.4772727272727271
 40
0.4999999999999998
 40
0.4999999999999998
 40
0.5227272727272726
 40
0.5227272727272726
 40
0.5454545454545453
 40
0.5454545454545453
 40
0.568181818181818
 40
0.568181818181818
 40
0.5909090909090907
 40
0.5909090909090907
 40
0.6136363636363634
 40
0.6136363636363634
 40
0.6363636363636361
 40
0.6363636363636361
 40
0.6590909090909088
 40
0.6590909090909088
 40
0.6818181818181815
 40
0.6818181818181815
 40
0.7045454545454543
 40
0.7045454545454543
 40
0.727272727272727
 40
0.727272727272727
 40
0.7499999999999997
 40
0.7499999999999997
 40
0.7727272727272724
 40
0.7727272727272724
 40
0.7954545454545451
 40
0.7954545454545451
 40
0.8181818181818178
 40
0.8181818181818178
 40
0.8409090909090905
 40
0.8409090909090905
 40
0.8636363636363632
 40
0.8636363636363632
 40
0.8863636363636359
 40
0.8863636363636359
 40
0.9090909090909086
 40
0.9090909090909086
 40
0.9318181818181813
 40
0.9318181818181813
 40
0.954545454545454
 40
0.954545454545454
 40
0.9772727272727267
 40
0.9772727272727267
 40
1.0
 40
1.0
 40
1.0
 40
1.0
 10
4757.66898741258
 20
-2610.930334681429
 30
0.0
 10
4757.66898741258
 20
-2610.930334681429
 30
0.0
 10
4757.66898741258
 20
-2610.381389281429
 30
0.0
 10
4757.66898741258
 20
-2610.381389281429
 30
0.0
 10
4757.484903312579
 20
-2609.649462081428
 30
0.0
 10
4757.484903312579
 20
-2609.649462081428
 30
0.0
 10
4757.304126112579
 20
-2608.915330281428
 30
0.0
 10
4757.304126112579
 20
-2608.915330281428
 30
0.0
 10
4756.937060212579
 20
-2608.366384881429
 30
0.0
 10
4756.937060212579
 20
-2608.366384881429
 30
0.0
 10
4756.388114812579
 20
-2607.815234881428
 30
0.0
 10
4756.388114812579
 20
-2607.815234881428
 30
0.0
 10
4756.021048912579
 20
-2607.267391781429
 30
0.0
 10
4756.021048912579
 20
-2607.267391781429
 30
0.0
 10
4755.46989891258
 20
-2606.900325881429
 30
0.0
 10
4755.46989891258
 20
-2606.900325881429
 30
0.0
 10
4754.73797171258
 20
-2606.535464581429
 30
0.0
 10
4754.73797171258
 20
-2606.535464581429
 30
0.0
 10
4754.190128612579
 20
-2606.168398681429
 30
0.0
 10
4754.190128612579
 20
-2606.168398681429
 30
0.0
 10
4753.45489451258
 20
-2606.168398681429
 30
0.0
 10
4753.45489451258
 20
-2606.168398681429
 30
0.0
 10
4752.722967312579
 20
-2605.984314581428
 30
0.0
 10
4752.722967312579
 20
-2605.984314581428
 30
0.0
 10
4751.991040112579
 20
-2606.168398681429
 30
0.0
 10
4751.991040112579
 20
-2606.168398681429
 30
0.0
 10
4751.259112912579
 20
-2606.168398681429
 30
0.0
 10
4751.259112912579
 20
-2606.168398681429
 30
0.0
 10
4750.707962912579
 20
-2606.535464581429
 30
0.0
 10
4750.707962912579
 20
-2606.535464581429
 30
0.0
 10
4749.97603571258
 20
-2606.900325881429
 30
0.0
 10
4749.97603571258
 20
-2606.900325881429
 30
0.0
 10
4749.424885712579
 20
-2607.267391781429
 30
0.0
 10
4749.424885712579
 20
-2607.267391781429
 30
0.0
 10
4749.06002441258
 20
-2607.815234881428
 30
0.0
 10
4749.06002441258
 20
-2607.815234881428
 30
0.0
 10
4748.50887441258
 20
-2608.366384881429
 30
0.0
 10
4748.50887441258
 20
-2608.366384881429
 30
0.0
 10
4748.14401311258
 20
-2608.915330281428
 30
0.0
 10
4748.14401311258
 20
-2608.915330281428
 30
0.0
 10
4747.96103131258
 20
-2609.649462081428
 30
0.0
 10
4747.96103131258
 20
-2609.649462081428
 30
0.0
 10
4747.776947212579
 20
-2610.381389281429
 30
0.0
 10
4747.776947212579
 20
-2610.381389281429
 30
0.0
 10
4747.776947212579
 20
-2610.930334681429
 30
0.0
 10
4747.776947212579
 20
-2610.930334681429
 30
0.0
 10
4747.776947212579
 20
-2611.664466481428
 30
0.0
 10
4747.776947212579
 20
-2611.664466481428
 30
0.0
 10
4747.96103131258
 20
-2612.396393681428
 30
0.0
 10
4747.96103131258
 20
-2612.396393681428
 30
0.0
 10
4748.14401311258
 20
-2613.129423181429
 30
0.0
 10
4748.14401311258
 20
-2613.129423181429
 30
0.0
 10
4748.50887441258
 20
-2613.679470881428
 30
0.0
 10
4748.50887441258
 20
-2613.679470881428
 30
0.0
 10
4749.06002441258
 20
-2614.228416281429
 30
0.0
 10
4749.06002441258
 20
-2614.228416281429
 30
0.0
 10
4749.424885712579
 20
-2614.779566281428
 30
0.0
 10
4749.424885712579
 20
-2614.779566281428
 30
0.0
 10
4749.97603571258
 20
-2615.144427581428
 30
0.0
 10
4749.97603571258
 20
-2615.144427581428
 30
0.0
 10
4750.707962912579
 20
-2615.511493481428
 30
0.0
 10
4750.707962912579
 20
-2615.511493481428
 30
0.0
 10
4751.259112912579
 20
-2615.694475281428
 30
0.0
 10
4751.259112912579
 20
-2615.694475281428
 30
0.0
 10
4751.991040112579
 20
-2615.878559381429
 30
0.0
 10
4751.991040112579
 20
-2615.878559381429
 30
0.0
 10
4752.722967312579
 20
-2615.878559381429
 30
0.0
 10
4752.722967312579
 20
-2615.878559381429
 30
0.0
 10
4753.45489451258
 20
-2615.878559381429
 30
0.0
 10
4753.45489451258
 20
-2615.878559381429
 30
0.0
 10
4754.190128612579
 20
-2615.694475281428
 30
0.0
 10
4754.190128612579
 20
-2615.694475281428
 30
0.0
 10
4754.73797171258
 20
-2615.511493481428
 30
0.0
 10
4754.73797171258
 20
-2615.511493481428
 30
0.0
 10
4755.46989891258
 20
-2615.144427581428
 30
0.0
 10
4755.46989891258
 20
-2615.144427581428
 30
0.0
 10
4756.021048912579
 20
-2614.779566281428
 30
0.0
 10
4756.021048912579
 20
-2614.779566281428
 30
0.0
 10
4756.388114812579
 20
-2614.228416281429
 30
0.0
 10
4756.388114812579
 20
-2614.228416281429
 30
0.0
 10
4756.937060212579
 20
-2613.679470881428
 30
0.0
 10
4756.937060212579
 20
-2613.679470881428
 30
0.0
 10
4757.304126112579
 20
-2613.129423181429
 30
0.0
 10
4757.304126112579
 20
-2613.129423181429
 30
0.0
 10
4757.484903312579
 20
-2612.396393681428
 30
0.0
 10
4757.484903312579
 20
-2612.396393681428
 30
0.0
 10
4757.66898741258
 20
-2611.664466481428
 30
0.0
 10
4757.66898741258
 20
-2611.664466481428
 30
0.0
 10
4757.66898741258
 20
-2610.930334681429
 30
0.0
 10
4757.66898741258
 20
-2610.930334681429
 30
0.0
  0
SPLINE
  5
AF
330
1F
100
AcDbEntity
  8
DV1_Livello_1
  6
Continuous
 62
     7
100
AcDbSpline
210
0.0
220
0.0
230
1.0
 70
    24
 71
     3
 72
     8
 73
     4
 74
     0
 42
0.0000000000993037
 43
0.0000000001
 12
1.0
 22
0.0
 32
0.0
 13
1.0
 23
0.0
 33
0.0
 40
0.0
 40
0.0
 40
0.0
 40
0.0
 40
1.0
 40
1.0
 40
1.0
 40
1.0
 10
4779.65325861258
 20
-2557.622004381428
 30
0.0
 10
4779.65325861258
 20
-2557.622004381428
 30
0.0
 10
4714.25269731258
 20
-2634.195478481428
 30
0.0
 10
4714.25269731258
 20
-2634.195478481428
 30
0.0
  0
SPLINE
  5
B0
330
1F
100
AcDbEntity
  8
DV1_Livello_1
  6
Continuous
 62
     7
100
AcDbSpline
210
0.0
220
0.0
230
1.0
 70
    24
 71
     3
 72
     8
 73
     4
 74
     0
 42
0.0000000002885596
 43
0.0000000001
 12
1.0
 22
0.0
 32
0.0
 13
1.0
 23
0.0
 33
0.0
 40
0.0
 40
0.0
 40
0.0
 40
0.0
 40
1.0
 40
1.0
 40
1.0
 40
1.0
 10
4755.653983012579
 20
-2606.900325881429
 30
0.0
 10
4755.653983012579
 20
-2606.900325881429
 30
0.0
 10
4784.23221281258
 20
-2626.502526781429
 30
0.0
 10
4784.23221281258
 20
-2626.502526781429
 30
0.0
  0
SPLINE
  5
B1
330
1F
100
AcDbEntity
  8
DV1_Livello_1
  6
Continuous
 62
     7
100
AcDbSpline
210
0.0
220
0.0
230
1.0
 70
    24
 71
     3
 72
     8
 73
     4
 74
     0
 42
0.0000000001110308
 43
0.0000000001
 12
1.0
 22
0.0
 32
0.0
 13
1.0
 23
0.0
 33
0.0
 40
0.0
 40
0.0
 40
0.0
 40
0.0
 40
1.0
 40
1.0
 40
1.0
 40
1.0
 10
4762.25014621258
 20
-2742.278198081428
 30
0.0
 10
4762.25014621258
 20
-2742.278198081428
 30
0.0
 10
4719.93284921258
 20
-2662.773708281429
 30
0.0
 10
4719.93284921258
 20
-2662.773708281429
 30
0.0
  0
SPLINE
  5
B2
330
1F
100
AcDbEntity
  8
DV1_Livello_1
  6
Continuous
 62
     7
100
AcDbSpline
210
0.0
220
0.0
230
1.0
 70
    24
 71
     3
 72
     8
 73
     4
 74
     0
 42
0.0000000003101624
 43
0.0000000001
 12
1.0
 22
0.0
 32
0.0
 13
1.0
 23
0.0
 33
0.0
 40
0.0
 40
0.0
 40
0.0
 40
0.0
 40
1.0
 40
1.0
 40
1.0
 40
1.0
 10
4758.95206461258
 20
-2742.278198081428
 30
0.0
 10
4758.95206461258
 20
-2742.278198081428
 30
0.0
 10
4758.95206461258
 20
-2774.519370781428
 30
0.0
 10
4758.95206461258
 20
-2774.519370781428
 30
0.0
  0
SPLINE
  5
B3
330
1F
100
AcDbEntity
  8
DV1_Livello_1
  6
Continuous
 62
     7
100
AcDbSpline
210
0.0
220
0.0
230
1.0
 70
    24
 71
     3
 72
     8
 73
     4
 74
     0
 42
0.0000000001765324
 43
0.0000000001
 12
1.0
 22
0.0
 32
0.0
 13
1.0
 23
0.0
 33
0.0
 40
0.0
 40
0.0
 40
0.0
 40
0.0
 40
1.0
 40
1.0
 40
1.0
 40
1.0
 10
4719.93284921258
 20
-2662.773708281429
 30
0.0
 10
4719.93284921258
 20
-2662.773708281429
 30
0.0
 10
4756.75297611258
 20
-2619.725586381428
 30
0.0
 10
4756.75297611258
 20
-2619.725586381428
 30
0.0
  0
SPLINE
  5
B4
330
1F
100
AcDbEntity
  8
DV1_Livello_1
  6
Continuous
 62
     7
100
AcDbSpline
210
0.0
220
0.0
230
1.0
 70
    24
 71
     3
 72
     8
 73
     4
 74
     0
 42
0.0000000003432033
 43
0.0000000001
 12
1.0
 22
0.0
 32
0.0
 13
1.0
 23
0.0
 33
0.0
 40
0.0
 40
0.0
 40
0.0
 40
0.0
 40
1.0
 40
1.0
 40
1.0
 40
1.0
 10
4719.93284921258
 20
-2662.773708281429
 30
0.0
 10
4719.93284921258
 20
-2662.773708281429
 30
0.0
 10
4714.25269731258
 20
-2634.195478481428
 30
0.0
 10
4714.25269731258
 20
-2634.195478481428
 30
0.0
  0
SPLINE
  5
B5
330
1F
100
AcDbEntity
  8
DV1_Livello_1
  6
Continuous
 62
     7
100
AcDbSpline
210
0.0
220
0.0
230
1.0
 70
    24
 71
     3
 72
     8
 73
     4
 74
     0
 42
0.0000000002485506
 43
0.0000000001
 12
1.0
 22
0.0
 32
0.0
 13
1.0
 23
0.0
 33
0.0
 40
0.0
 40
0.0
 40
0.0
 40
0.0
 40
1.0
 40
1.0
 40
1.0
 40
1.0
 10
4688.05653781258
 20
-2638.225487281428
 30
0.0
 10
4688.05653781258
 20
-2638.225487281428
 30
0.0
 10
4719.93284921258
 20
-2662.773708281429
 30
0.0
 10
4719.93284921258
 20
-2662.773708281429
 30
0.0
  0
SPLINE
  5
B6
330
1F
100
AcDbEntity
  8
DV1_Livello_1
  6
Continuous
 62
     7
100
AcDbSpline
210
0.0
220
0.0
230
1.0
 70
    24
 71
     3
 72
     8
 73
     4
 74
     0
 42
0.0000000002478802
 43
0.0000000001
 12
1.0
 22
0.0
 32
0.0
 13
1.0
 23
0.0
 33
0.0
 40
0.0
 40
0.0
 40
0.0
 40
0.0
 40
1.0
 40
1.0
 40
1.0
 40
1.0
 10
4682.37859051258
 20
-2609.466480281429
 30
0.0
 10
4682.37859051258
 20
-2609.466480281429
 30
0.0
 10
4714.25269731258
 20
-2634.195478481428
 30
0.0
 10
4714.25269731258
 20
-2634.195478481428
 30
0.0
  0
SPLINE
  5
B7
330
1F
100
AcDbEntity
  8
DV1_Livello_1
  6
Continuous
 62
     7
100
AcDbSpline
210
0.0
220
0.0
230
1.0
 70
    24
 71
     3
 72
     8
 73
     4
 74
     0
 42
0.0000000003411321
 43
0.0000000001
 12
1.0
 22
0.0
 32
0.0
 13
1.0
 23
0.0
 33
0.0
 40
0.0
 40
0.0
 40
0.0
 40
0.0
 40
1.0
 40
1.0
 40
1.0
 40
1.0
 10
4688.05653781258
 20
-2638.225487281428
 30
0.0
 10
4688.05653781258
 20
-2638.225487281428
 30
0.0
 10
4682.37859051258
 20
-2609.466480281429
 30
0.0
 10
4682.37859051258
 20
-2609.466480281429
 30
0.0
  0
SPLINE
  5
B8
330
1F
100
AcDbEntity
  8
DV1_Livello_1
  6
Continuous
 62
     7
100
AcDbSpline
210
0.0
220
0.0
230
1.0
 70
    11
 71
     3
 72
   126
 73
   122
 74
     0
 42
0.0000000001578567
 43
0.0000000001
 12
1.0
 22
0.0
 32
0.0
 13
1.0
 23
0.0
 33
0.0
 40
0.0
 40
0.0
 40
0.0
 40
0.0
 40
0.0166666666666667
 40
0.0166666666666667
 40
0.0333333333333333
 40
0.0333333333333333
 40
0.05
 40
0.05
 40
0.0666666666666667
 40
0.0666666666666667
 40
0.0833333333333333
 40
0.0833333333333333
 40
0.1
 40
0.1
 40
0.1166666666666667
 40
0.1166666666666667
 40
0.1333333333333333
 40
0.1333333333333333
 40
0.15
 40
0.15
 40
0.1666666666666667
 40
0.1666666666666667
 40
0.1833333333333333
 40
0.1833333333333333
 40
0.2
 40
0.2
 40
0.2166666666666667
 40
0.2166666666666667
 40
0.2333333333333333
 40
0.2333333333333333
 40
0.25
 40
0.25
 40
0.2666666666666667
 40
0.2666666666666667
 40
0.2833333333333333
 40
0.2833333333333333
 40
0.3
 40
0.3
 40
0.3166666666666667
 40
0.3166666666666667
 40
0.3333333333333333
 40
0.3333333333333333
 40
0.35
 40
0.35
 40
0.3666666666666666
 40
0.3666666666666666
 40
0.3833333333333333
 40
0.3833333333333333
 40
0.4
 40
0.4
 40
0.4166666666666666
 40
0.4166666666666666
 40
0.4333333333333333
 40
0.4333333333333333
 40
0.45
 40
0.45
 40
0.4666666666666666
 40
0.4666666666666666
 40
0.4833333333333333
 40
0.4833333333333333
 40
0.4999999999999999
 40
0.4999999999999999
 40
0.5166666666666666
 40
0.5166666666666666
 40
0.5333333333333333
 40
0.5333333333333333
 40
0.55
 40
0.55
 40
0.5666666666666668
 40
0.5666666666666668
 40
0.5833333333333335
 40
0.5833333333333335
 40
0.6000000000000002
 40
0.6000000000000002
 40
0.6166666666666669
 40
0.6166666666666669
 40
0.6333333333333336
 40
0.6333333333333336
 40
0.6500000000000004
 40
0.6500000000000004
 40
0.6666666666666671
 40
0.6666666666666671
 40
0.6833333333333338
 40
0.6833333333333338
 40
0.7000000000000005
 40
0.7000000000000005
 40
0.7166666666666672
 40
0.7166666666666672
 40
0.733333333333334
 40
0.733333333333334
 40
0.7500000000000007
 40
0.7500000000000007
 40
0.7666666666666674
 40
0.7666666666666674
 40
0.7833333333333341
 40
0.7833333333333341
 40
0.8000000000000008
 40
0.8000000000000008
 40
0.8166666666666675
 40
0.8166666666666675
 40
0.8333333333333343
 40
0.8333333333333343
 40
0.850000000000001
 40
0.850000000000001
 40
0.8666666666666677
 40
0.8666666666666677
 40
0.8833333333333344
 40
0.8833333333333344
 40
0.9000000000000011
 40
0.9000000000000011
 40
0.9166666666666679
 40
0.9166666666666679
 40
0.9333333333333346
 40
0.9333333333333346
 40
0.9500000000000013
 40
0.9500000000000013
 40
0.966666666666668
 40
0.966666666666668
 40
0.9833333333333347
 40
0.9833333333333347
 40
1.0
 40
1.0
 40
1.0
 40
1.0
 10
4761.698996212579
 20
-2659.659710781428
 30
0.0
 10
4761.698996212579
 20
-2659.659710781428
 30
0.0
 10
4761.698996212579
 20
-2658.560717681429
 30
0.0
 10
4761.698996212579
 20
-2658.560717681429
 30
0.0
 10
4761.51601441258
 20
-2657.460622281429
 30
0.0
 10
4761.51601441258
 20
-2657.460622281429
 30
0.0
 10
4761.15115311258
 20
-2656.545713281429
 30
0.0
 10
4761.15115311258
 20
-2656.545713281429
 30
0.0
 10
4760.78298491258
 20
-2655.445617881428
 30
0.0
 10
4760.78298491258
 20
-2655.445617881428
 30
0.0
 10
4760.41812361258
 20
-2654.529606581428
 30
0.0
 10
4760.41812361258
 20
-2654.529606581428
 30
0.0
 10
4759.868075912579
 20
-2653.614697581428
 30
0.0
 10
4759.868075912579
 20
-2653.614697581428
 30
0.0
 10
4759.13504641258
 20
-2652.882770381429
 30
0.0
 10
4759.13504641258
 20
-2652.882770381429
 30
0.0
 10
4758.403119212579
 20
-2652.149740881429
 30
0.0
 10
4758.403119212579
 20
-2652.149740881429
 30
0.0
 10
4757.484903312579
 20
-2651.415609081429
 30
0.0
 10
4757.484903312579
 20
-2651.415609081429
 30
0.0
 10
4756.75297611258
 20
-2650.866663681429
 30
0.0
 10
4756.75297611258
 20
-2650.866663681429
 30
0.0
 10
4755.653983012579
 20
-2650.499597781429
 30
0.0
 10
4755.653983012579
 20
-2650.499597781429
 30
0.0
 10
4754.73797171258
 20
-2650.134736481429
 30
0.0
 10
4754.73797171258
 20
-2650.134736481429
 30
0.0
 10
4753.82196041258
 20
-2649.767670581428
 30
0.0
 10
4753.82196041258
 20
-2649.767670581428
 30
0.0
 10
4752.722967312579
 20
-2649.584688781428
 30
0.0
 10
4752.722967312579
 20
-2649.584688781428
 30
0.0
 10
4751.623974212579
 20
-2649.584688781428
 30
0.0
 10
4751.623974212579
 20
-2649.584688781428
 30
0.0
 10
4750.52387881258
 20
-2649.584688781428
 30
0.0
 10
4750.52387881258
 20
-2649.584688781428
 30
0.0
 10
4749.60896981258
 20
-2649.767670581428
 30
0.0
 10
4749.60896981258
 20
-2649.767670581428
 30
0.0
 10
4748.50887441258
 20
-2650.134736481429
 30
0.0
 10
4748.50887441258
 20
-2650.134736481429
 30
0.0
 10
4747.59396541258
 20
-2650.499597781429
 30
0.0
 10
4747.59396541258
 20
-2650.499597781429
 30
0.0
 10
4746.67795411258
 20
-2650.866663681429
 30
0.0
 10
4746.67795411258
 20
-2650.866663681429
 30
0.0
 10
4745.76194281258
 20
-2651.415609081429
 30
0.0
 10
4745.76194281258
 20
-2651.415609081429
 30
0.0
 10
4744.84593151258
 20
-2652.149740881429
 30
0.0
 10
4744.84593151258
 20
-2652.149740881429
 30
0.0
 10
4744.11400431258
 20
-2652.882770381429
 30
0.0
 10
4744.11400431258
 20
-2652.882770381429
 30
0.0
 10
4743.562854312579
 20
-2653.614697581428
 30
0.0
 10
4743.562854312579
 20
-2653.614697581428
 30
0.0
 10
4743.01501121258
 20
-2654.529606581428
 30
0.0
 10
4743.01501121258
 20
-2654.529606581428
 30
0.0
 10
4742.463861212579
 20
-2655.445617881428
 30
0.0
 10
4742.463861212579
 20
-2655.445617881428
 30
0.0
 10
4742.09899991258
 20
-2656.545713281429
 30
0.0
 10
4742.09899991258
 20
-2656.545713281429
 30
0.0
 10
4741.73193401258
 20
-2657.460622281429
 30
0.0
 10
4741.73193401258
 20
-2657.460622281429
 30
0.0
 10
4741.73193401258
 20
-2658.560717681429
 30
0.0
 10
4741.73193401258
 20
-2658.560717681429
 30
0.0
 10
4741.547849912579
 20
-2659.659710781428
 30
0.0
 10
4741.547849912579
 20
-2659.659710781428
 30
0.0
 10
4741.73193401258
 20
-2660.575722081428
 30
0.0
 10
4741.73193401258
 20
-2660.575722081428
 30
0.0
 10
4741.73193401258
 20
-2661.674715181428
 30
0.0
 10
4741.73193401258
 20
-2661.674715181428
 30
0.0
 10
4742.09899991258
 20
-2662.773708281429
 30
0.0
 10
4742.09899991258
 20
-2662.773708281429
 30
0.0
 10
4742.463861212579
 20
-2663.689719581429
 30
0.0
 10
4742.463861212579
 20
-2663.689719581429
 30
0.0
 10
4743.01501121258
 20
-2664.605730881429
 30
0.0
 10
4743.01501121258
 20
-2664.605730881429
 30
0.0
 10
4743.562854312579
 20
-2665.521742181428
 30
0.0
 10
4743.562854312579
 20
-2665.521742181428
 30
0.0
 10
4744.11400431258
 20
-2666.436651181428
 30
0.0
 10
4744.11400431258
 20
-2666.436651181428
 30
0.0
 10
4744.84593151258
 20
-2667.171885281428
 30
0.0
 10
4744.84593151258
 20
-2667.171885281428
 30
0.0
 10
4745.76194281258
 20
-2667.719728381428
 30
0.0
 10
4745.76194281258
 20
-2667.719728381428
 30
0.0
 10
4746.67795411258
 20
-2668.270878381429
 30
0.0
 10
4746.67795411258
 20
-2668.270878381429
 30
0.0
 10
4747.59396541258
 20
-2668.819823781429
 30
0.0
 10
4747.59396541258
 20
-2668.819823781429
 30
0.0
 10
4748.50887441258
 20
-2669.186889681429
 30
0.0
 10
4748.50887441258
 20
-2669.186889681429
 30
0.0
 10
4749.60896981258
 20
-2669.369871481429
 30
0.0
 10
4749.60896981258
 20
-2669.369871481429
 30
0.0
 10
4750.52387881258
 20
-2669.551750981429
 30
0.0
 10
4750.52387881258
 20
-2669.551750981429
 30
0.0
 10
4751.623974212579
 20
-2669.734732781429
 30
0.0
 10
4751.623974212579
 20
-2669.734732781429
 30
0.0
 10
4752.722967312579
 20
-2669.551750981429
 30
0.0
 10
4752.722967312579
 20
-2669.551750981429
 30
0.0
 10
4753.82196041258
 20
-2669.369871481429
 30
0.0
 10
4753.82196041258
 20
-2669.369871481429
 30
0.0
 10
4754.73797171258
 20
-2669.186889681429
 30
0.0
 10
4754.73797171258
 20
-2669.186889681429
 30
0.0
 10
4755.653983012579
 20
-2668.819823781429
 30
0.0
 10
4755.653983012579
 20
-2668.819823781429
 30
0.0
 10
4756.75297611258
 20
-2668.270878381429
 30
0.0
 10
4756.75297611258
 20
-2668.270878381429
 30
0.0
 10
4757.484903312579
 20
-2667.719728381428
 30
0.0
 10
4757.484903312579
 20
-2667.719728381428
 30
0.0
 10
4758.403119212579
 20
-2667.171885281428
 30
0.0
 10
4758.403119212579
 20
-2667.171885281428
 30
0.0
 10
4759.13504641258
 20
-2666.436651181428
 30
0.0
 10
4759.13504641258
 20
-2666.436651181428
 30
0.0
 10
4759.868075912579
 20
-2665.521742181428
 30
0.0
 10
4759.868075912579
 20
-2665.521742181428
 30
0.0
 10
4760.41812361258
 20
-2664.605730881429
 30
0.0
 10
4760.41812361258
 20
-2664.605730881429
 30
0.0
 10
4760.78298491258
 20
-2663.689719581429
 30
0.0
 10
4760.78298491258
 20
-2663.689719581429
 30
0.0
 10
4761.15115311258
 20
-2662.773708281429
 30
0.0
 10
4761.15115311258
 20
-2662.773708281429
 30
0.0
 10
4761.51601441258
 20
-2661.674715181428
 30
0.0
 10
4761.51601441258
 20
-2661.674715181428
 30
0.0
 10
4761.698996212579
 20
-2660.575722081428
 30
0.0
 10
4761.698996212579
 20
-2660.575722081428
 30
0.0
 10
4761.698996212579
 20
-2659.659710781428
 30
0.0
 10
4761.698996212579
 20
-2659.659710781428
 30
0.0
  0
SPLINE
  5
B9
330
1F
100
AcDbEntity
  8
DV1_Livello_1
  6
Continuous
 62
     7
100
AcDbSpline
210
0.0
220
0.0
230
1.0
 70
    24
 71
     3
 72
     8
 73
     4
 74
     0
 42
0.0000000006453149
 43
0.0000000001
 12
1.0
 22
0.0
 32
0.0
 13
1.0
 23
0.0
 33
0.0
 40
0.0
 40
0.0
 40
0.0
 40
0.0
 40
1.0
 40
1.0
 40
1.0
 40
1.0
 10
4756.75297611258
 20
-2619.725586381428
 30
0.0
 10
4756.75297611258
 20
-2619.725586381428
 30
0.0
 10
4769.759013812579
 20
-2628.150465281429
 30
0.0
 10
4769.759013812579
 20
-2628.150465281429
 30
0.0
  0
SPLINE
  5
BA
330
1F
100
AcDbEntity
  8
DV1_Livello_1
  6
Continuous
 62
     7
100
AcDbSpline
210
0.0
220
0.0
230
1.0
 70
    24
 71
     3
 72
     8
 73
     4
 74
     0
 42
0.0000000003531844
 43
0.0000000001
 12
1.0
 22
0.0
 32
0.0
 13
1.0
 23
0.0
 33
0.0
 40
0.0
 40
0.0
 40
0.0
 40
0.0
 40
1.0
 40
1.0
 40
1.0
 40
1.0
 10
4751.259112912579
 20
-2649.584688781428
 30
0.0
 10
4751.259112912579
 20
-2649.584688781428
 30
0.0
 10
4769.759013812579
 20
-2628.150465281429
 30
0.0
 10
4769.759013812579
 20
-2628.150465281429
 30
0.0
  0
SPLINE
  5
BB
330
1F
100
AcDbEntity
  8
DV1_Livello_1
  6
Continuous
 62
     7
100
AcDbSpline
210
0.0
220
0.0
230
1.0
 70
    24
 71
     3
 72
     8
 73
     4
 74
     0
 42
0.0000000002710259
 43
0.0000000001
 12
1.0
 22
0.0
 32
0.0
 13
1.0
 23
0.0
 33
0.0
 40
0.0
 40
0.0
 40
0.0
 40
0.0
 40
1.0
 40
1.0
 40
1.0
 40
1.0
 10
4760.235141812579
 20
-2654.529606581428
 30
0.0
 10
4760.235141812579
 20
-2654.529606581428
 30
0.0
 10
4784.23221281258
 20
-2626.502526781429
 30
0.0
 10
4784.23221281258
 20
-2626.502526781429
 30
0.0
  0
SPLINE
  5
BC
330
1F
100
AcDbEntity
  8
DV1_Livello_1
  6
Continuous
 62
     7
100
AcDbSpline
210
0.0
220
0.0
230
1.0
 70
    24
 71
     3
 72
     8
 73
     4
 74
     0
 42
0.0000000011783162
 43
0.0000000001
 12
1.0
 22
0.0
 32
0.0
 13
1.0
 23
0.0
 33
0.0
 40
0.0
 40
0.0
 40
0.0
 40
0.0
 40
1.0
 40
1.0
 40
1.0
 40
1.0
 10
4749.60896981258
 20
-2615.144427581428
 30
0.0
 10
4749.60896981258
 20
-2615.144427581428
 30
0.0
 10
4756.75297611258
 20
-2619.725586381428
 30
0.0
 10
4756.75297611258
 20
-2619.725586381428
 30
0.0
  0
SPLINE
  5
BD
330
1F
100
AcDbEntity
  8
DV1_Livello_1
  6
Continuous
 62
     7
100
AcDbSpline
210
0.0
220
0.0
230
1.0
 70
    24
 71
     3
 72
     8
 73
     4
 74
     0
 42
0.0000000000657636
 43
0.0000000001
 12
1.0
 22
0.0
 32
0.0
 13
1.0
 23
0.0
 33
0.0
 40
0.0
 40
0.0
 40
0.0
 40
0.0
 40
1.0
 40
1.0
 40
1.0
 40
1.0
 10
4568.98278491258
 20
-2511.641764481428
 30
0.0
 10
4568.98278491258
 20
-2511.641764481428
 30
0.0
 10
4699.598721112579
 20
-2589.498315781429
 30
0.0
 10
4699.598721112579
 20
-2589.498315781429
 30
0.0
  0
SPLINE
  5
BE
330
1F
100
AcDbEntity
  8
DV1_Livello_1
  6
Continuous
 62
     7
100
AcDbSpline
210
0.0
220
0.0
230
1.0
 70
    24
 71
     3
 72
     8
 73
     4
 74
     0
 42
0.0000000000662568
 43
0.0000000001
 12
1.0
 22
0.0
 32
0.0
 13
1.0
 23
0.0
 33
0.0
 40
0.0
 40
0.0
 40
0.0
 40
0.0
 40
1.0
 40
1.0
 40
1.0
 40
1.0
 10
4557.623583412579
 20
-2526.479824781429
 30
0.0
 10
4557.623583412579
 20
-2526.479824781429
 30
0.0
 10
4687.14052651258
 20
-2603.969310181428
 30
0.0
 10
4687.14052651258
 20
-2603.969310181428
 30
0.0
  0
SPLINE
  5
BF
330
1F
100
AcDbEntity
  8
DV1_Livello_1
  6
Continuous
 62
     7
100
AcDbSpline
210
0.0
220
0.0
230
1.0
 70
     8
 71
     3
 72
   102
 73
    98
 74
     0
 42
0.0000000001265985
 43
0.0000000001
 12
1.0
 22
0.0
 32
0.0
 13
1.0
 23
0.0
 33
0.0
 40
0.0
 40
0.0
 40
0.0
 40
0.0
 40
0.0208333333333333
 40
0.0208333333333333
 40
0.0416666666666667
 40
0.0416666666666667
 40
0.0625
 40
0.0625
 40
0.0833333333333333
 40
0.0833333333333333
 40
0.1041666666666667
 40
0.1041666666666667
 40
0.125
 40
0.125
 40
0.1458333333333333
 40
0.1458333333333333
 40
0.1666666666666667
 40
0.1666666666666667
 40
0.1875
 40
0.1875
 40
0.2083333333333333
 40
0.2083333333333333
 40
0.2291666666666667
 40
0.2291666666666667
 40
0.25
 40
0.25
 40
0.2708333333333333
 40
0.2708333333333333
 40
0.2916666666666666
 40
0.2916666666666666
 40
0.3124999999999999
 40
0.3124999999999999
 40
0.3333333333333333
 40
0.3333333333333333
 40
0.3541666666666666
 40
0.3541666666666666
 40
0.3749999999999999
 40
0.3749999999999999
 40
0.3958333333333332
 40
0.3958333333333332
 40
0.4166666666666665
 40
0.4166666666666665
 40
0.4374999999999998
 40
0.4374999999999998
 40
0.4583333333333332
 40
0.4583333333333332
 40
0.4791666666666665
 40
0.4791666666666665
 40
0.4999999999999998
 40
0.4999999999999998
 40
0.5208333333333331
 40
0.5208333333333331
 40
0.5416666666666665
 40
0.5416666666666665
 40
0.5624999999999999
 40
0.5624999999999999
 40
0.5833333333333333
 40
0.5833333333333333
 40
0.6041666666666666
 40
0.6041666666666666
 40
0.625
 40
0.625
 40
0.6458333333333334
 40
0.6458333333333334
 40
0.6666666666666667
 40
0.6666666666666667
 40
0.6875000000000001
 40
0.6875000000000001
 40
0.7083333333333335
 40
0.7083333333333335
 40
0.7291666666666669
 40
0.7291666666666669
 40
0.7500000000000002
 40
0.7500000000000002
 40
0.7708333333333336
 40
0.7708333333333336
 40
0.791666666666667
 40
0.791666666666667
 40
0.8125000000000003
 40
0.8125000000000003
 40
0.8333333333333337
 40
0.8333333333333337
 40
0.8541666666666671
 40
0.8541666666666671
 40
0.8750000000000004
 40
0.8750000000000004
 40
0.8958333333333338
 40
0.8958333333333338
 40
0.9166666666666672
 40
0.9166666666666672
 40
0.9375000000000006
 40
0.9375000000000006
 40
0.9583333333333339
 40
0.9583333333333339
 40
0.9791666666666673
 40
0.9791666666666673
 40
1.0
 40
1.0
 40
1.0
 40
1.0
 10
4601.591023512579
 20
-2473.536355781428
 30
0.0
 10
4601.591023512579
 20
-2473.536355781428
 30
0.0
 10
4600.30794631258
 20
-2472.439567281428
 30
0.0
 10
4600.30794631258
 20
-2472.439567281428
 30
0.0
 10
4599.02486911258
 20
-2471.521351381428
 30
0.0
 10
4599.02486911258
 20
-2471.521351381428
 30
0.0
 10
4597.561014712579
 20
-2470.606442381429
 30
0.0
 10
4597.561014712579
 20
-2470.606442381429
 30
0.0
 10
4596.09385341258
 20
-2469.873412881429
 30
0.0
 10
4596.09385341258
 20
-2469.873412881429
 30
0.0
 10
4594.62999901258
 20
-2469.141485681429
 30
0.0
 10
4594.62999901258
 20
-2469.141485681429
 30
0.0
 10
4593.16394001258
 20
-2468.590335681429
 30
0.0
 10
4593.16394001258
 20
-2468.590335681429
 30
0.0
 10
4591.516001512579
 20
-2468.225474381429
 30
0.0
 10
4591.516001512579
 20
-2468.225474381429
 30
0.0
 10
4589.86585841258
 20
-2467.858408481428
 30
0.0
 10
4589.86585841258
 20
-2467.858408481428
 30
0.0
 10
4588.217919912579
 20
-2467.675426681428
 30
0.0
 10
4588.217919912579
 20
-2467.675426681428
 30
0.0
 10
4586.569981412579
 20
-2467.491342581428
 30
0.0
 10
4586.569981412579
 20
-2467.491342581428
 30
0.0
 10
4585.10282011258
 20
-2467.491342581428
 30
0.0
 10
4585.10282011258
 20
-2467.491342581428
 30
0.0
 10
4583.454881612579
 20
-2467.491342581428
 30
0.0
 10
4583.454881612579
 20
-2467.491342581428
 30
0.0
 10
4581.80473851258
 20
-2467.675426681428
 30
0.0
 10
4581.80473851258
 20
-2467.675426681428
 30
0.0
 10
4580.156800012579
 20
-2468.042492581429
 30
0.0
 10
4580.156800012579
 20
-2468.042492581429
 30
0.0
 10
4578.50886151258
 20
-2468.409558481429
 30
0.0
 10
4578.50886151258
 20
-2468.409558481429
 30
0.0
 10
4577.042802512579
 20
-2468.774419781429
 30
0.0
 10
4577.042802512579
 20
-2468.774419781429
 30
0.0
 10
4575.394864012579
 20
-2469.506346981429
 30
0.0
 10
4575.394864012579
 20
-2469.506346981429
 30
0.0
 10
4573.92880501258
 20
-2470.240478781429
 30
0.0
 10
4573.92880501258
 20
-2470.240478781429
 30
0.0
 10
4572.463848312579
 20
-2470.973508281428
 30
0.0
 10
4572.463848312579
 20
-2470.973508281428
 30
0.0
 10
4571.180771112579
 20
-2471.888417281428
 30
0.0
 10
4571.180771112579
 20
-2471.888417281428
 30
0.0
 10
4569.71471211258
 20
-2472.804428581429
 30
0.0
 10
4569.71471211258
 20
-2472.804428581429
 30
0.0
 10
4568.43383951258
 20
-2473.903421681428
 30
0.0
 10
4568.43383951258
 20
-2473.903421681428
 30
0.0
 10
4567.33484641258
 20
-2475.003517081429
 30
0.0
 10
4567.33484641258
 20
-2475.003517081429
 30
0.0
 10
4566.23475101258
 20
-2476.286594281428
 30
0.0
 10
4566.23475101258
 20
-2476.286594281428
 30
0.0
 10
4565.13575791258
 20
-2477.566364581428
 30
0.0
 10
4565.13575791258
 20
-2477.566364581428
 30
0.0
 10
4564.219746612579
 20
-2478.849441781429
 30
0.0
 10
4564.219746612579
 20
-2478.849441781429
 30
0.0
 10
4563.487819412579
 20
-2480.316603081429
 30
0.0
 10
4563.487819412579
 20
-2480.316603081429
 30
0.0
 10
4562.569603512579
 20
-2481.780457481429
 30
0.0
 10
4562.569603512579
 20
-2481.780457481429
 30
0.0
 10
4562.02176041258
 20
-2483.247618781428
 30
0.0
 10
4562.02176041258
 20
-2483.247618781428
 30
0.0
 10
4561.472815012579
 20
-2484.711473181429
 30
0.0
 10
4561.472815012579
 20
-2484.711473181429
 30
0.0
 10
4560.92166501258
 20
-2486.361616281429
 30
0.0
 10
4560.92166501258
 20
-2486.361616281429
 30
0.0
 10
4560.55459911258
 20
-2488.009554781428
 30
0.0
 10
4560.55459911258
 20
-2488.009554781428
 30
0.0
 10
4560.37382191258
 20
-2489.657493281428
 30
0.0
 10
4560.37382191258
 20
-2489.657493281428
 30
0.0
 10
4560.18973781258
 20
-2491.307636381428
 30
0.0
 10
4560.18973781258
 20
-2491.307636381428
 30
0.0
 10
4560.18973781258
 20
-2492.955574881429
 30
0.0
 10
4560.18973781258
 20
-2492.955574881429
 30
0.0
 10
4560.18973781258
 20
-2494.605717981428
 30
0.0
 10
4560.18973781258
 20
-2494.605717981428
 30
0.0
 10
4560.37382191258
 20
-2496.253656481429
 30
0.0
 10
4560.37382191258
 20
-2496.253656481429
 30
0.0
 10
4560.738683212579
 20
-2497.717510881429
 30
0.0
 10
4560.738683212579
 20
-2497.717510881429
 30
0.0
 10
4561.105749112579
 20
-2499.367653981428
 30
0.0
 10
4561.105749112579
 20
-2499.367653981428
 30
0.0
 10
4561.65469451258
 20
-2501.015592481428
 30
0.0
 10
4561.65469451258
 20
-2501.015592481428
 30
0.0
 10
4562.20474221258
 20
-2502.482753781429
 30
0.0
 10
4562.20474221258
 20
-2502.482753781429
 30
0.0
 10
4562.936669412579
 20
-2503.946608181428
 30
0.0
 10
4562.936669412579
 20
-2503.946608181428
 30
0.0
 10
4563.669698912579
 20
-2505.413769481429
 30
0.0
 10
4563.669698912579
 20
-2505.413769481429
 30
0.0
 10
4564.584607912579
 20
-2506.877623881428
 30
0.0
 10
4564.584607912579
 20
-2506.877623881428
 30
0.0
 10
4565.50282381258
 20
-2508.160701081429
 30
0.0
 10
4565.50282381258
 20
-2508.160701081429
 30
0.0
 10
4566.59961231258
 20
-2509.443778281429
 30
0.0
 10
4566.59961231258
 20
-2509.443778281429
 30
0.0
 10
4567.69970771258
 20
-2510.542771381428
 30
0.0
 10
4567.69970771258
 20
-2510.542771381428
 30
0.0
 10
4568.98278491258
 20
-2511.641764481428
 30
0.0
 10
4568.98278491258
 20
-2511.641764481428
 30
0.0
  0
SPLINE
  5
C0
330
1F
100
AcDbEntity
  8
DV1_Livello_1
  6
Continuous
 62
     7
100
AcDbSpline
210
0.0
220
0.0
230
1.0
 70
    24
 71
     3
 72
     8
 73
     4
 74
     0
 42
0.0000000003772641
 43
0.0000000001
 12
1.0
 22
0.0
 32
0.0
 13
1.0
 23
0.0
 33
0.0
 40
0.0
 40
0.0
 40
0.0
 40
0.0
 40
1.0
 40
1.0
 40
1.0
 40
1.0
 10
4552.67756331258
 20
-2532.341856181429
 30
0.0
 10
4552.67756331258
 20
-2532.341856181429
 30
0.0
 10
4569.89769391258
 20
-2512.190709881429
 30
0.0
 10
4569.89769391258
 20
-2512.190709881429
 30
0.0
  0
SPLINE
  5
C1
330
1F
100
AcDbEntity
  8
DV1_Livello_1
  6
Continuous
 62
     7
100
AcDbSpline
210
0.0
220
0.0
230
1.0
 70
    24
 71
     3
 72
     8
 73
     4
 74
     0
 42
0.0000000003410894
 43
0.0000000001
 12
1.0
 22
0.0
 32
0.0
 13
1.0
 23
0.0
 33
0.0
 40
0.0
 40
0.0
 40
0.0
 40
0.0
 40
1.0
 40
1.0
 40
1.0
 40
1.0
 10
4604.889105112579
 20
-2471.156490081428
 30
0.0
 10
4604.889105112579
 20
-2471.156490081428
 30
0.0
 10
4599.208953212579
 20
-2442.394176181429
 30
0.0
 10
4599.208953212579
 20
-2442.394176181429
 30
0.0
  0
SPLINE
  5
C2
330
1F
100
AcDbEntity
  8
DV1_Livello_1
  6
Continuous
 62
     7
100
AcDbSpline
210
0.0
220
0.0
230
1.0
 70
    24
 71
     3
 72
     8
 73
     4
 74
     0
 42
0.000000000286107
 43
0.0000000001
 12
1.0
 22
0.0
 32
0.0
 13
1.0
 23
0.0
 33
0.0
 40
0.0
 40
0.0
 40
0.0
 40
0.0
 40
1.0
 40
1.0
 40
1.0
 40
1.0
 10
4599.208953212579
 20
-2442.394176181429
 30
0.0
 10
4599.208953212579
 20
-2442.394176181429
 30
0.0
 10
4576.493857112579
 20
-2468.958503881428
 30
0.0
 10
4576.493857112579
 20
-2468.958503881428
 30
0.0
  0
SPLINE
  5
C3
330
1F
100
AcDbEntity
  8
DV1_Livello_1
  6
Continuous
 62
     7
100
AcDbSpline
210
0.0
220
0.0
230
1.0
 70
    24
 71
     3
 72
     8
 73
     4
 74
     0
 42
0.0000000027503378
 43
0.0000000001
 12
1.0
 22
0.0
 32
0.0
 13
1.0
 23
0.0
 33
0.0
 40
0.0
 40
0.0
 40
0.0
 40
0.0
 40
1.0
 40
1.0
 40
1.0
 40
1.0
 10
4602.50703481258
 20
-2473.903421681428
 30
0.0
 10
4602.50703481258
 20
-2473.903421681428
 30
0.0
 10
4604.889105112579
 20
-2471.156490081428
 30
0.0
 10
4604.889105112579
 20
-2471.156490081428
 30
0.0
  0
SPLINE
  5
C4
330
1F
100
AcDbEntity
  8
DV1_Livello_1
  6
Continuous
 62
     7
100
AcDbSpline
210
0.0
220
0.0
230
1.0
 70
    24
 71
     3
 72
     8
 73
     4
 74
     0
 42
0.0000000004997796
 43
0.0000000001
 12
1.0
 22
0.0
 32
0.0
 13
1.0
 23
0.0
 33
0.0
 40
0.0
 40
0.0
 40
0.0
 40
0.0
 40
1.0
 40
1.0
 40
1.0
 40
1.0
 10
4599.208953212579
 20
-2442.394176181429
 30
0.0
 10
4599.208953212579
 20
-2442.394176181429
 30
0.0
 10
4584.00382701258
 20
-2429.388138481429
 30
0.0
 10
4584.00382701258
 20
-2429.388138481429
 30
0.0
  0
SPLINE
  5
C5
330
1F
100
AcDbEntity
  8
DV1_Livello_1
  6
Continuous
 62
     7
100
AcDbSpline
210
0.0
220
0.0
230
1.0
 70
    24
 71
     3
 72
     8
 73
     4
 74
     0
 42
0.0000000002840106
 43
0.0000000001
 12
1.0
 22
0.0
 32
0.0
 13
1.0
 23
0.0
 33
0.0
 40
0.0
 40
0.0
 40
0.0
 40
0.0
 40
1.0
 40
1.0
 40
1.0
 40
1.0
 10
4747.776947212579
 20
-2533.073783381429
 30
0.0
 10
4747.776947212579
 20
-2533.073783381429
 30
0.0
 10
4724.87886931258
 20
-2559.821092881429
 30
0.0
 10
4724.87886931258
 20
-2559.821092881429
 30
0.0
  0
SPLINE
  5
C6
330
1F
100
AcDbEntity
  8
DV1_Livello_1
  6
Continuous
 62
     7
100
AcDbSpline
210
0.0
220
0.0
230
1.0
 70
    24
 71
     3
 72
     8
 73
     4
 74
     0
 42
0.0000000002485506
 43
0.0000000001
 12
1.0
 22
0.0
 32
0.0
 13
1.0
 23
0.0
 33
0.0
 40
0.0
 40
0.0
 40
0.0
 40
0.0
 40
1.0
 40
1.0
 40
1.0
 40
1.0
 10
4747.776947212579
 20
-2533.073783381429
 30
0.0
 10
4747.776947212579
 20
-2533.073783381429
 30
0.0
 10
4779.65325861258
 20
-2557.622004381428
 30
0.0
 10
4779.65325861258
 20
-2557.622004381428
 30
0.0
  0
SPLINE
  5
C7
330
1F
100
AcDbEntity
  8
DV1_Livello_1
  6
Continuous
 62
     7
100
AcDbSpline
210
0.0
220
0.0
230
1.0
 70
    24
 71
     3
 72
     8
 73
     4
 74
     0
 42
0.0000000003410944
 43
0.0000000001
 12
1.0
 22
0.0
 32
0.0
 13
1.0
 23
0.0
 33
0.0
 40
0.0
 40
0.0
 40
0.0
 40
0.0
 40
1.0
 40
1.0
 40
1.0
 40
1.0
 10
4785.331205912579
 20
-2586.384318281428
 30
0.0
 10
4785.331205912579
 20
-2586.384318281428
 30
0.0
 10
4779.65325861258
 20
-2557.622004381428
 30
0.0
 10
4779.65325861258
 20
-2557.622004381428
 30
0.0
  0
SPLINE
  5
C8
330
1F
100
AcDbEntity
  8
DV1_Livello_1
  6
Continuous
 62
     7
100
AcDbSpline
210
0.0
220
0.0
230
1.0
 70
    24
 71
     3
 72
     8
 73
     4
 74
     0
 42
0.0000000000994316
 43
0.0000000001
 12
1.0
 22
0.0
 32
0.0
 13
1.0
 23
0.0
 33
0.0
 40
0.0
 40
0.0
 40
0.0
 40
0.0
 40
1.0
 40
1.0
 40
1.0
 40
1.0
 10
4454.12202261258
 20
-2372.781726581429
 30
0.0
 10
4454.12202261258
 20
-2372.781726581429
 30
0.0
 10
4554.69367001258
 20
-2372.781726581429
 30
0.0
 10
4554.69367001258
 20
-2372.781726581429
 30
0.0
  0
SPLINE
  5
C9
330
1F
100
AcDbEntity
  8
DV1_Livello_1
  6
Continuous
 62
     7
100
AcDbSpline
210
0.0
220
0.0
230
1.0
 70
    24
 71
     3
 72
     8
 73
     4
 74
     0
 42
0.0000000001105027
 43
0.0000000001
 12
1.0
 22
0.0
 32
0.0
 13
1.0
 23
0.0
 33
0.0
 40
0.0
 40
0.0
 40
0.0
 40
0.0
 40
1.0
 40
1.0
 40
1.0
 40
1.0
 10
4549.74764991258
 20
-2377.727746681428
 30
0.0
 10
4549.74764991258
 20
-2377.727746681428
 30
0.0
 10
4459.252126812579
 20
-2377.727746681428
 30
0.0
 10
4459.252126812579
 20
-2377.727746681428
 30
0.0
  0
SPLINE
  5
CA
330
1F
100
AcDbEntity
  8
DV1_Livello_1
  6
Continuous
 62
     7
100
AcDbSpline
210
0.0
220
0.0
230
1.0
 70
    24
 71
     3
 72
     8
 73
     4
 74
     0
 42
0.0000000000417658
 43
0.0000000001
 12
1.0
 22
0.0
 32
0.0
 13
1.0
 23
0.0
 33
0.0
 40
0.0
 40
0.0
 40
0.0
 40
0.0
 40
1.0
 40
1.0
 40
1.0
 40
1.0
 10
4433.236744512579
 20
-2347.136717081428
 30
0.0
 10
4433.236744512579
 20
-2347.136717081428
 30
0.0
 10
4672.66732751258
 20
-2347.136717081428
 30
0.0
 10
4672.66732751258
 20
-2347.136717081428
 30
0.0
  0
SPLINE
  5
CB
330
1F
100
AcDbEntity
  8
DV1_Livello_1
  6
Continuous
 62
     7
100
AcDbSpline
210
0.0
220
0.0
230
1.0
 70
    24
 71
     3
 72
     8
 73
     4
 74
     0
 42
0.0000000006655862
 43
0.0000000001
 12
1.0
 22
0.0
 32
0.0
 13
1.0
 23
0.0
 33
0.0
 40
0.0
 40
0.0
 40
0.0
 40
0.0
 40
1.0
 40
1.0
 40
1.0
 40
1.0
 10
4484.716359112579
 20
-2383.040832681429
 30
0.0
 10
4484.716359112579
 20
-2383.040832681429
 30
0.0
 10
4469.69201011258
 20
-2383.040832681429
 30
0.0
 10
4469.69201011258
 20
-2383.040832681429
 30
0.0
  0
SPLINE
  5
CC
330
1F
100
AcDbEntity
  8
DV1_Livello_1
  6
Continuous
 62
     7
100
AcDbSpline
210
0.0
220
0.0
230
1.0
 70
    11
 71
     3
 72
    54
 73
    50
 74
     0
 42
0.0000000010252656
 43
0.0000000001
 12
1.0
 22
0.0
 32
0.0
 13
1.0
 23
0.0
 33
0.0
 40
0.0
 40
0.0
 40
0.0
 40
0.0
 40
0.0416666666666667
 40
0.0416666666666667
 40
0.0833333333333333
 40
0.0833333333333333
 40
0.125
 40
0.125
 40
0.1666666666666667
 40
0.1666666666666667
 40
0.2083333333333333
 40
0.2083333333333333
 40
0.25
 40
0.25
 40
0.2916666666666666
 40
0.2916666666666666
 40
0.3333333333333333
 40
0.3333333333333333
 40
0.375
 40
0.375
 40
0.4166666666666667
 40
0.4166666666666667
 40
0.4583333333333334
 40
0.4583333333333334
 40
0.5
 40
0.5
 40
0.5416666666666666
 40
0.5416666666666666
 40
0.5833333333333333
 40
0.5833333333333333
 40
0.6249999999999999
 40
0.6249999999999999
 40
0.6666666666666665
 40
0.6666666666666665
 40
0.7083333333333331
 40
0.7083333333333331
 40
0.7499999999999998
 40
0.7499999999999998
 40
0.7916666666666664
 40
0.7916666666666664
 40
0.833333333333333
 40
0.833333333333333
 40
0.8749999999999997
 40
0.8749999999999997
 40
0.9166666666666663
 40
0.9166666666666663
 40
0.9583333333333329
 40
0.9583333333333329
 40
1.0
 40
1.0
 40
1.0
 40
1.0
 10
4505.96319161258
 20
-2390.553007181429
 30
0.0
 10
4505.96319161258
 20
-2390.553007181429
 30
0.0
 10
4505.78241441258
 20
-2390.185941281429
 30
0.0
 10
4505.78241441258
 20
-2390.185941281429
 30
0.0
 10
4505.598330312579
 20
-2389.818875381429
 30
0.0
 10
4505.598330312579
 20
-2389.818875381429
 30
0.0
 10
4505.41534851258
 20
-2389.636995881428
 30
0.0
 10
4505.41534851258
 20
-2389.636995881428
 30
0.0
 10
4505.04828261258
 20
-2389.269929981429
 30
0.0
 10
4505.04828261258
 20
-2389.269929981429
 30
0.0
 10
4504.683421312579
 20
-2389.269929981429
 30
0.0
 10
4504.683421312579
 20
-2389.269929981429
 30
0.0
 10
4504.316355412579
 20
-2389.086948181428
 30
0.0
 10
4504.316355412579
 20
-2389.086948181428
 30
0.0
 10
4503.94818721258
 20
-2389.269929981429
 30
0.0
 10
4503.94818721258
 20
-2389.269929981429
 30
0.0
 10
4503.583325912579
 20
-2389.269929981429
 30
0.0
 10
4503.583325912579
 20
-2389.269929981429
 30
0.0
 10
4503.216260012579
 20
-2389.636995881428
 30
0.0
 10
4503.216260012579
 20
-2389.636995881428
 30
0.0
 10
4503.03327821258
 20
-2389.818875381429
 30
0.0
 10
4503.03327821258
 20
-2389.818875381429
 30
0.0
 10
4502.85139871258
 20
-2390.185941281429
 30
0.0
 10
4502.85139871258
 20
-2390.185941281429
 30
0.0
 10
4502.85139871258
 20
-2390.553007181429
 30
0.0
 10
4502.85139871258
 20
-2390.553007181429
 30
0.0
 10
4502.85139871258
 20
-2391.101952581428
 30
0.0
 10
4502.85139871258
 20
-2391.101952581428
 30
0.0
 10
4503.03327821258
 20
-2391.469018481429
 30
0.0
 10
4503.03327821258
 20
-2391.469018481429
 30
0.0
 10
4503.216260012579
 20
-2391.652000281428
 30
0.0
 10
4503.216260012579
 20
-2391.652000281428
 30
0.0
 10
4503.583325912579
 20
-2392.016861581428
 30
0.0
 10
4503.583325912579
 20
-2392.016861581428
 30
0.0
 10
4503.94818721258
 20
-2392.016861581428
 30
0.0
 10
4503.94818721258
 20
-2392.016861581428
 30
0.0
 10
4504.316355412579
 20
-2392.200945681428
 30
0.0
 10
4504.316355412579
 20
-2392.200945681428
 30
0.0
 10
4504.683421312579
 20
-2392.016861581428
 30
0.0
 10
4504.683421312579
 20
-2392.016861581428
 30
0.0
 10
4505.04828261258
 20
-2392.016861581428
 30
0.0
 10
4505.04828261258
 20
-2392.016861581428
 30
0.0
 10
4505.41534851258
 20
-2391.652000281428
 30
0.0
 10
4505.41534851258
 20
-2391.652000281428
 30
0.0
 10
4505.598330312579
 20
-2391.469018481429
 30
0.0
 10
4505.598330312579
 20
-2391.469018481429
 30
0.0
 10
4505.78241441258
 20
-2391.101952581428
 30
0.0
 10
4505.78241441258
 20
-2391.101952581428
 30
0.0
 10
4505.96319161258
 20
-2390.553007181429
 30
0.0
 10
4505.96319161258
 20
-2390.553007181429
 30
0.0
  0
SPLINE
  5
CD
330
1F
100
AcDbEntity
  8
DV1_Livello_1
  6
Continuous
 62
     7
100
AcDbSpline
210
0.0
220
0.0
230
1.0
 70
    24
 71
     3
 72
     8
 73
     4
 74
     0
 42
0.0000000006656839
 43
0.0000000001
 12
1.0
 22
0.0
 32
0.0
 13
1.0
 23
0.0
 33
0.0
 40
0.0
 40
0.0
 40
0.0
 40
0.0
 40
1.0
 40
1.0
 40
1.0
 40
1.0
 10
4539.12368251258
 20
-2383.040832681429
 30
0.0
 10
4539.12368251258
 20
-2383.040832681429
 30
0.0
 10
4524.101538112579
 20
-2383.040832681429
 30
0.0
 10
4524.101538112579
 20
-2383.040832681429
 30
0.0
  0
SPLINE
  5
CE
330
1F
100
AcDbEntity
  8
DV1_Livello_1
  6
Continuous
 62
     7
100
AcDbSpline
210
0.0
220
0.0
230
1.0
 70
    24
 71
     3
 72
     8
 73
     4
 74
     0
 42
0.000000000026019
 43
0.0000000001
 12
1.0
 22
0.0
 32
0.0
 13
1.0
 23
0.0
 33
0.0
 40
0.0
 40
0.0
 40
0.0
 40
0.0
 40
1.0
 40
1.0
 40
1.0
 40
1.0
 10
4853.29681931258
 20
-2731.471248881428
 30
0.0
 10
4853.29681931258
 20
-2731.471248881428
 30
0.0
 10
4853.29681931258
 20
-2347.136717081428
 30
0.0
 10
4853.29681931258
 20
-2347.136717081428
 30
0.0
  0
SPLINE
  5
CF
330
1F
100
AcDbEntity
  8
DV1_Livello_1
  6
Continuous
 62
     7
100
AcDbSpline
210
0.0
220
0.0
230
1.0
 70
    11
 71
     3
 72
   158
 73
   154
 74
     0
 42
0.0000000001053472
 43
0.0000000001
 12
1.0
 22
0.0
 32
0.0
 13
1.0
 23
0.0
 33
0.0
 40
0.0
 40
0.0
 40
0.0
 40
0.0
 40
0.0131578947368421
 40
0.0131578947368421
 40
0.0263157894736842
 40
0.0263157894736842
 40
0.0394736842105263
 40
0.0394736842105263
 40
0.0526315789473684
 40
0.0526315789473684
 40
0.0657894736842105
 40
0.0657894736842105
 40
0.0789473684210526
 40
0.0789473684210526
 40
0.0921052631578947
 40
0.0921052631578947
 40
0.1052631578947368
 40
0.1052631578947368
 40
0.1184210526315789
 40
0.1184210526315789
 40
0.1315789473684211
 40
0.1315789473684211
 40
0.1447368421052632
 40
0.1447368421052632
 40
0.1578947368421053
 40
0.1578947368421053
 40
0.1710526315789474
 40
0.1710526315789474
 40
0.1842105263157894
 40
0.1842105263157894
 40
0.1973684210526315
 40
0.1973684210526315
 40
0.2105263157894736
 40
0.2105263157894736
 40
0.2236842105263157
 40
0.2236842105263157
 40
0.2368421052631578
 40
0.2368421052631578
 40
0.2499999999999999
 40
0.2499999999999999
 40
0.263157894736842
 40
0.263157894736842
 40
0.2763157894736841
 40
0.2763157894736841
 40
0.2894736842105262
 40
0.2894736842105262
 40
0.3026315789473683
 40
0.3026315789473683
 40
0.3157894736842103
 40
0.3157894736842103
 40
0.3289473684210524
 40
0.3289473684210524
 40
0.3421052631578945
 40
0.3421052631578945
 40
0.3552631578947366
 40
0.3552631578947366
 40
0.3684210526315787
 40
0.3684210526315787
 40
0.3815789473684208
 40
0.3815789473684208
 40
0.3947368421052629
 40
0.3947368421052629
 40
0.407894736842105
 40
0.407894736842105
 40
0.4210526315789471
 40
0.4210526315789471
 40
0.4342105263157892
 40
0.4342105263157892
 40
0.4473684210526313
 40
0.4473684210526313
 40
0.4605263157894733
 40
0.4605263157894733
 40
0.4736842105263154
 40
0.4736842105263154
 40
0.4868421052631575
 40
0.4868421052631575
 40
0.4999999999999996
 40
0.4999999999999996
 40
0.5131578947368417
 40
0.5131578947368417
 40
0.5263157894736838
 40
0.5263157894736838
 40
0.539473684210526
 40
0.539473684210526
 40
0.5526315789473681
 40
0.5526315789473681
 40
0.5657894736842103
 40
0.5657894736842103
 40
0.5789473684210524
 40
0.5789473684210524
 40
0.5921052631578946
 40
0.5921052631578946
 40
0.6052631578947367
 40
0.6052631578947367
 40
0.6184210526315789
 40
0.6184210526315789
 40
0.631578947368421
 40
0.631578947368421
 40
0.6447368421052632
 40
0.6447368421052632
 40
0.6578947368421053
 40
0.6578947368421053
 40
0.6710526315789475
 40
0.6710526315789475
 40
0.6842105263157896
 40
0.6842105263157896
 40
0.6973684210526317
 40
0.6973684210526317
 40
0.7105263157894739
 40
0.7105263157894739
 40
0.723684210526316
 40
0.723684210526316
 40
0.7368421052631582
 40
0.7368421052631582
 40
0.7500000000000003
 40
0.7500000000000003
 40
0.7631578947368425
 40
0.7631578947368425
 40
0.7763157894736846
 40
0.7763157894736846
 40
0.7894736842105268
 40
0.7894736842105268
 40
0.8026315789473689
 40
0.8026315789473689
 40
0.8157894736842111
 40
0.8157894736842111
 40
0.8289473684210532
 40
0.8289473684210532
 40
0.8421052631578954
 40
0.8421052631578954
 40
0.8552631578947375
 40
0.8552631578947375
 40
0.8684210526315796
 40
0.8684210526315796
 40
0.8815789473684218
 40
0.8815789473684218
 40
0.8947368421052639
 40
0.8947368421052639
 40
0.9078947368421061
 40
0.9078947368421061
 40
0.9210526315789482
 40
0.9210526315789482
 40
0.9342105263157904
 40
0.9342105263157904
 40
0.9473684210526325
 40
0.9473684210526325
 40
0.9605263157894747
 40
0.9605263157894747
 40
0.9736842105263168
 40
0.9736842105263168
 40
0.986842105263159
 40
0.986842105263159
 40
1.0
 40
1.0
 40
1.0
 40
1.0
 10
4855.85966681258
 20
-2748.874361281429
 30
0.0
 10
4855.85966681258
 20
-2748.874361281429
 30
0.0
 10
4855.67668501258
 20
-2747.591284081429
 30
0.0
 10
4855.67668501258
 20
-2747.591284081429
 30
0.0
 10
4855.67668501258
 20
-2746.308206881428
 30
0.0
 10
4855.67668501258
 20
-2746.308206881428
 30
0.0
 10
4855.311823712579
 20
-2745.209213781428
 30
0.0
 10
4855.311823712579
 20
-2745.209213781428
 30
0.0
 10
4854.944757812579
 20
-2743.928341181429
 30
0.0
 10
4854.944757812579
 20
-2743.928341181429
 30
0.0
 10
4854.576589612579
 20
-2742.829348081429
 30
0.0
 10
4854.576589612579
 20
-2742.829348081429
 30
0.0
 10
4854.028746512579
 20
-2741.730354981429
 30
0.0
 10
4854.028746512579
 20
-2741.730354981429
 30
0.0
 10
4853.29681931258
 20
-2740.630259581429
 30
0.0
 10
4853.29681931258
 20
-2740.630259581429
 30
0.0
 10
4852.561585212579
 20
-2739.531266481428
 30
0.0
 10
4852.561585212579
 20
-2739.531266481428
 30
0.0
 10
4851.82965801258
 20
-2738.615255181429
 30
0.0
 10
4851.82965801258
 20
-2738.615255181429
 30
0.0
 10
4850.91364671258
 20
-2737.699243881429
 30
0.0
 10
4850.91364671258
 20
-2737.699243881429
 30
0.0
 10
4849.998737712579
 20
-2736.967316681429
 30
0.0
 10
4849.998737712579
 20
-2736.967316681429
 30
0.0
 10
4848.898642312579
 20
-2736.233184881429
 30
0.0
 10
4848.898642312579
 20
-2736.233184881429
 30
0.0
 10
4847.98373331258
 20
-2735.501257681428
 30
0.0
 10
4847.98373331258
 20
-2735.501257681428
 30
0.0
 10
4846.88363791258
 20
-2734.952312281428
 30
0.0
 10
4846.88363791258
 20
-2734.952312281428
 30
0.0
 10
4845.60056071258
 20
-2734.585246381429
 30
0.0
 10
4845.60056071258
 20
-2734.585246381429
 30
0.0
 10
4844.501567612579
 20
-2734.218180481428
 30
0.0
 10
4844.501567612579
 20
-2734.218180481428
 30
0.0
 10
4843.220695012579
 20
-2734.036300981429
 30
0.0
 10
4843.220695012579
 20
-2734.036300981429
 30
0.0
 10
4841.937617812579
 20
-2733.853319181429
 30
0.0
 10
4841.937617812579
 20
-2733.853319181429
 30
0.0
 10
4840.65454061258
 20
-2733.669235081428
 30
0.0
 10
4840.65454061258
 20
-2733.669235081428
 30
0.0
 10
4839.555547512579
 20
-2733.853319181429
 30
0.0
 10
4839.555547512579
 20
-2733.853319181429
 30
0.0
 10
4838.27247031258
 20
-2734.036300981429
 30
0.0
 10
4838.27247031258
 20
-2734.036300981429
 30
0.0
 10
4836.99159771258
 20
-2734.218180481428
 30
0.0
 10
4836.99159771258
 20
-2734.218180481428
 30
0.0
 10
4835.89260461258
 20
-2734.585246381429
 30
0.0
 10
4835.89260461258
 20
-2734.585246381429
 30
0.0
 10
4834.60952741258
 20
-2734.952312281428
 30
0.0
 10
4834.60952741258
 20
-2734.952312281428
 30
0.0
 10
4833.51053431258
 20
-2735.501257681428
 30
0.0
 10
4833.51053431258
 20
-2735.501257681428
 30
0.0
 10
4832.41043891258
 20
-2736.233184881429
 30
0.0
 10
4832.41043891258
 20
-2736.233184881429
 30
0.0
 10
4831.49552991258
 20
-2736.967316681429
 30
0.0
 10
4831.49552991258
 20
-2736.967316681429
 30
0.0
 10
4830.57951861258
 20
-2737.699243881429
 30
0.0
 10
4830.57951861258
 20
-2737.699243881429
 30
0.0
 10
4829.66350731258
 20
-2738.615255181429
 30
0.0
 10
4829.66350731258
 20
-2738.615255181429
 30
0.0
 10
4828.747496012579
 20
-2739.531266481428
 30
0.0
 10
4828.747496012579
 20
-2739.531266481428
 30
0.0
 10
4828.19744831258
 20
-2740.630259581429
 30
0.0
 10
4828.19744831258
 20
-2740.630259581429
 30
0.0
 10
4827.46552111258
 20
-2741.730354981429
 30
0.0
 10
4827.46552111258
 20
-2741.730354981429
 30
0.0
 10
4826.916575712579
 20
-2742.829348081429
 30
0.0
 10
4826.916575712579
 20
-2742.829348081429
 30
0.0
 10
4826.549509812579
 20
-2743.928341181429
 30
0.0
 10
4826.549509812579
 20
-2743.928341181429
 30
0.0
 10
4826.182443912579
 20
-2745.209213781428
 30
0.0
 10
4826.182443912579
 20
-2745.209213781428
 30
0.0
 10
4825.817582612579
 20
-2746.308206881428
 30
0.0
 10
4825.817582612579
 20
-2746.308206881428
 30
0.0
 10
4825.63349851258
 20
-2747.591284081429
 30
0.0
 10
4825.63349851258
 20
-2747.591284081429
 30
0.0
 10
4825.63349851258
 20
-2748.874361281429
 30
0.0
 10
4825.63349851258
 20
-2748.874361281429
 30
0.0
 10
4825.63349851258
 20
-2750.157438481428
 30
0.0
 10
4825.63349851258
 20
-2750.157438481428
 30
0.0
 10
4825.817582612579
 20
-2751.254226981428
 30
0.0
 10
4825.817582612579
 20
-2751.254226981428
 30
0.0
 10
4826.182443912579
 20
-2752.537304181429
 30
0.0
 10
4826.182443912579
 20
-2752.537304181429
 30
0.0
 10
4826.549509812579
 20
-2753.820381381428
 30
0.0
 10
4826.549509812579
 20
-2753.820381381428
 30
0.0
 10
4826.916575712579
 20
-2754.919374481429
 30
0.0
 10
4826.916575712579
 20
-2754.919374481429
 30
0.0
 10
4827.46552111258
 20
-2756.019469881428
 30
0.0
 10
4827.46552111258
 20
-2756.019469881428
 30
0.0
 10
4828.19744831258
 20
-2757.118462981428
 30
0.0
 10
4828.19744831258
 20
-2757.118462981428
 30
0.0
 10
4828.747496012579
 20
-2758.034474281429
 30
0.0
 10
4828.747496012579
 20
-2758.034474281429
 30
0.0
 10
4829.66350731258
 20
-2759.133467381429
 30
0.0
 10
4829.66350731258
 20
-2759.133467381429
 30
0.0
 10
4830.57951861258
 20
-2759.865394581429
 30
0.0
 10
4830.57951861258
 20
-2759.865394581429
 30
0.0
 10
4831.49552991258
 20
-2760.781405881429
 30
0.0
 10
4831.49552991258
 20
-2760.781405881429
 30
0.0
 10
4832.41043891258
 20
-2761.513333081429
 30
0.0
 10
4832.41043891258
 20
-2761.513333081429
 30
0.0
 10
4833.51053431258
 20
-2762.064483081429
 30
0.0
 10
4833.51053431258
 20
-2762.064483081429
 30
0.0
 10
4834.60952741258
 20
-2762.613428481428
 30
0.0
 10
4834.60952741258
 20
-2762.613428481428
 30
0.0
 10
4835.89260461258
 20
-2763.163476181428
 30
0.0
 10
4835.89260461258
 20
-2763.163476181428
 30
0.0
 10
4836.99159771258
 20
-2763.528337481428
 30
0.0
 10
4836.99159771258
 20
-2763.528337481428
 30
0.0
 10
4838.27247031258
 20
-2763.712421581428
 30
0.0
 10
4838.27247031258
 20
-2763.712421581428
 30
0.0
 10
4839.555547512579
 20
-2763.895403381428
 30
0.0
 10
4839.555547512579
 20
-2763.895403381428
 30
0.0
 10
4840.65454061258
 20
-2763.895403381428
 30
0.0
 10
4840.65454061258
 20
-2763.895403381428
 30
0.0
 10
4841.937617812579
 20
-2763.895403381428
 30
0.0
 10
4841.937617812579
 20
-2763.895403381428
 30
0.0
 10
4843.220695012579
 20
-2763.712421581428
 30
0.0
 10
4843.220695012579
 20
-2763.712421581428
 30
0.0
 10
4844.501567612579
 20
-2763.528337481428
 30
0.0
 10
4844.501567612579
 20
-2763.528337481428
 30
0.0
 10
4845.60056071258
 20
-2763.163476181428
 30
0.0
 10
4845.60056071258
 20
-2763.163476181428
 30
0.0
 10
4846.88363791258
 20
-2762.613428481428
 30
0.0
 10
4846.88363791258
 20
-2762.613428481428
 30
0.0
 10
4847.98373331258
 20
-2762.064483081429
 30
0.0
 10
4847.98373331258
 20
-2762.064483081429
 30
0.0
 10
4848.898642312579
 20
-2761.513333081429
 30
0.0
 10
4848.898642312579
 20
-2761.513333081429
 30
0.0
 10
4849.998737712579
 20
-2760.781405881429
 30
0.0
 10
4849.998737712579
 20
-2760.781405881429
 30
0.0
 10
4850.91364671258
 20
-2759.865394581429
 30
0.0
 10
4850.91364671258
 20
-2759.865394581429
 30
0.0
 10
4851.82965801258
 20
-2759.133467381429
 30
0.0
 10
4851.82965801258
 20
-2759.133467381429
 30
0.0
 10
4852.561585212579
 20
-2758.034474281429
 30
0.0
 10
4852.561585212579
 20
-2758.034474281429
 30
0.0
 10
4853.29681931258
 20
-2757.118462981428
 30
0.0
 10
4853.29681931258
 20
-2757.118462981428
 30
0.0
 10
4854.028746512579
 20
-2756.019469881428
 30
0.0
 10
4854.028746512579
 20
-2756.019469881428
 30
0.0
 10
4854.576589612579
 20
-2754.919374481429
 30
0.0
 10
4854.576589612579
 20
-2754.919374481429
 30
0.0
 10
4854.944757812579
 20
-2753.820381381428
 30
0.0
 10
4854.944757812579
 20
-2753.820381381428
 30
0.0
 10
4855.311823712579
 20
-2752.537304181429
 30
0.0
 10
4855.311823712579
 20
-2752.537304181429
 30
0.0
 10
4855.67668501258
 20
-2751.254226981428
 30
0.0
 10
4855.67668501258
 20
-2751.254226981428
 30
0.0
 10
4855.67668501258
 20
-2750.157438481428
 30
0.0
 10
4855.67668501258
 20
-2750.157438481428
 30
0.0
 10
4855.85966681258
 20
-2748.874361281429
 30
0.0
 10
4855.85966681258
 20
-2748.874361281429
 30
0.0
  0
SPLINE
  5
D0
330
1F
100
AcDbEntity
  8
DV1_Livello_1
  6
Continuous
 62
     7
100
AcDbSpline
210
0.0
220
0.0
230
1.0
 70
    24
 71
     3
 72
     8
 73
     4
 74
     0
 42
0.0000000001807556
 43
0.0000000001
 12
1.0
 22
0.0
 32
0.0
 13
1.0
 23
0.0
 33
0.0
 40
0.0
 40
0.0
 40
0.0
 40
0.0
 40
1.0
 40
1.0
 40
1.0
 40
1.0
 10
4821.78647151258
 20
-2799.800621281428
 30
0.0
 10
4821.78647151258
 20
-2799.800621281428
 30
0.0
 10
4821.78647151258
 20
-2744.477286581428
 30
0.0
 10
4821.78647151258
 20
-2744.477286581428
 30
0.0
  0
SPLINE
  5
D1
330
1F
100
AcDbEntity
  8
DV1_Livello_1
  6
Continuous
 62
     7
100
AcDbSpline
210
0.0
220
0.0
230
1.0
 70
    24
 71
     3
 72
     8
 73
     4
 74
     0
 42
0.0000000008948452
 43
0.0000000001
 12
1.0
 22
0.0
 32
0.0
 13
1.0
 23
0.0
 33
0.0
 40
0.0
 40
0.0
 40
0.0
 40
0.0
 40
1.0
 40
1.0
 40
1.0
 40
1.0
 10
4853.29681931258
 20
-2757.118462981428
 30
0.0
 10
4853.29681931258
 20
-2757.118462981428
 30
0.0
 10
4853.29681931258
 20
-2768.293580381428
 30
0.0
 10
4853.29681931258
 20
-2768.293580381428
 30
0.0
  0
SPLINE
  5
D2
330
1F
100
AcDbEntity
  8
DV1_Livello_1
  6
Continuous
 62
     7
100
AcDbSpline
210
0.0
220
0.0
230
1.0
 70
    24
 71
     3
 72
     8
 73
     4
 74
     0
 42
0.0000000002210027
 43
0.0000000001
 12
1.0
 22
0.0
 32
0.0
 13
1.0
 23
0.0
 33
0.0
 40
0.0
 40
0.0
 40
0.0
 40
0.0
 40
1.0
 40
1.0
 40
1.0
 40
1.0
 10
4801.63642751258
 20
-2754.552308581429
 30
0.0
 10
4801.63642751258
 20
-2754.552308581429
 30
0.0
 10
4801.63642751258
 20
-2799.800621281428
 30
0.0
 10
4801.63642751258
 20
-2799.800621281428
 30
0.0
  0
SPLINE
  5
D3
330
1F
100
AcDbEntity
  8
DV1_Livello_1
  6
Continuous
 62
     7
100
AcDbSpline
210
0.0
220
0.0
230
1.0
 70
    24
 71
     3
 72
     8
 73
     4
 74
     0
 42
0.0000000010109138
 43
0.0000000001
 12
1.0
 22
0.0
 32
0.0
 13
1.0
 23
0.0
 33
0.0
 40
0.0
 40
0.0
 40
0.0
 40
0.0
 40
1.0
 40
1.0
 40
1.0
 40
1.0
 10
4823.25142821258
 20
-2809.875643281428
 30
0.0
 10
4823.25142821258
 20
-2809.875643281428
 30
0.0
 10
4823.25142821258
 20
-2799.983603081429
 30
0.0
 10
4823.25142821258
 20
-2799.983603081429
 30
0.0
  0
SPLINE
  5
D4
330
1F
100
AcDbEntity
  8
DV1_Livello_1
  6
Continuous
 62
     7
100
AcDbSpline
210
0.0
220
0.0
230
1.0
 70
    24
 71
     3
 72
     8
 73
     4
 74
     0
 42
0.0000000003984689
 43
0.0000000001
 12
1.0
 22
0.0
 32
0.0
 13
1.0
 23
0.0
 33
0.0
 40
0.0
 40
0.0
 40
0.0
 40
0.0
 40
1.0
 40
1.0
 40
1.0
 40
1.0
 10
4798.15426181258
 20
-2804.929623181429
 30
0.0
 10
4798.15426181258
 20
-2804.929623181429
 30
0.0
 10
4798.15426181258
 20
-2779.833559081429
 30
0.0
 10
4798.15426181258
 20
-2779.833559081429
 30
0.0
  0
SPLINE
  5
D5
330
1F
100
AcDbEntity
  8
DV1_Livello_1
  6
Continuous
 62
     7
100
AcDbSpline
210
0.0
220
0.0
230
1.0
 70
    24
 71
     3
 72
     8
 73
     4
 74
     0
 42
0.0000000008663872
 43
0.0000000001
 12
1.0
 22
0.0
 32
0.0
 13
1.0
 23
0.0
 33
0.0
 40
0.0
 40
0.0
 40
0.0
 40
0.0
 40
1.0
 40
1.0
 40
1.0
 40
1.0
 10
4809.69644511258
 20
-2809.875643281428
 30
0.0
 10
4809.69644511258
 20
-2809.875643281428
 30
0.0
 10
4798.15426181258
 20
-2809.875643281428
 30
0.0
 10
4798.15426181258
 20
-2809.875643281428
 30
0.0
  0
SPLINE
  5
D6
330
1F
100
AcDbEntity
  8
DV1_Livello_1
  6
Continuous
 62
     7
100
AcDbSpline
210
0.0
220
0.0
230
1.0
 70
    24
 71
     3
 72
     8
 73
     4
 74
     0
 42
0.0000000008663872
 43
0.0000000001
 12
1.0
 22
0.0
 32
0.0
 13
1.0
 23
0.0
 33
0.0
 40
0.0
 40
0.0
 40
0.0
 40
0.0
 40
1.0
 40
1.0
 40
1.0
 40
1.0
 10
4809.69644511258
 20
-2799.800621281428
 30
0.0
 10
4809.69644511258
 20
-2799.800621281428
 30
0.0
 10
4798.15426181258
 20
-2799.800621281428
 30
0.0
 10
4798.15426181258
 20
-2799.800621281428
 30
0.0
  0
SPLINE
  5
D7
330
1F
100
AcDbEntity
  8
DV1_Livello_1
  6
Continuous
 62
     7
100
AcDbSpline
210
0.0
220
0.0
230
1.0
 70
    24
 71
     3
 72
     8
 73
     4
 74
     0
 42
0.0000000004962768
 43
0.0000000001
 12
1.0
 22
0.0
 32
0.0
 13
1.0
 23
0.0
 33
0.0
 40
0.0
 40
0.0
 40
0.0
 40
0.0
 40
1.0
 40
1.0
 40
1.0
 40
1.0
 10
4801.63642751258
 20
-2799.800621281428
 30
0.0
 10
4801.63642751258
 20
-2799.800621281428
 30
0.0
 10
4821.78647151258
 20
-2799.800621281428
 30
0.0
 10
4821.78647151258
 20
-2799.800621281428
 30
0.0
  0
SPLINE
  5
D8
330
1F
100
AcDbEntity
  8
DV1_Livello_1
  6
Continuous
 62
     7
100
AcDbSpline
210
0.0
220
0.0
230
1.0
 70
    24
 71
     3
 72
     8
 73
     4
 74
     0
 42
0.0000000003984514
 43
0.0000000001
 12
1.0
 22
0.0
 32
0.0
 13
1.0
 23
0.0
 33
0.0
 40
0.0
 40
0.0
 40
0.0
 40
0.0
 40
1.0
 40
1.0
 40
1.0
 40
1.0
 10
4823.25142821258
 20
-2799.983603081429
 30
0.0
 10
4823.25142821258
 20
-2799.983603081429
 30
0.0
 10
4798.15426181258
 20
-2799.983603081429
 30
0.0
 10
4798.15426181258
 20
-2799.983603081429
 30
0.0
  0
SPLINE
  5
D9
330
1F
100
AcDbEntity
  8
DV1_Livello_1
  6
Continuous
 62
     7
100
AcDbSpline
210
0.0
220
0.0
230
1.0
 70
    24
 71
     3
 72
     8
 73
     4
 74
     0
 42
0.0000000003984514
 43
0.0000000001
 12
1.0
 22
0.0
 32
0.0
 13
1.0
 23
0.0
 33
0.0
 40
0.0
 40
0.0
 40
0.0
 40
0.0
 40
1.0
 40
1.0
 40
1.0
 40
1.0
 10
4798.15426181258
 20
-2809.875643281428
 30
0.0
 10
4798.15426181258
 20
-2809.875643281428
 30
0.0
 10
4823.25142821258
 20
-2809.875643281428
 30
0.0
 10
4823.25142821258
 20
-2809.875643281428
 30
0.0
  0
SPLINE
  5
DA
330
1F
100
AcDbEntity
  8
DV1_Livello_1
  6
Continuous
 62
     7
100
AcDbSpline
210
0.0
220
0.0
230
1.0
 70
    24
 71
     3
 72
     8
 73
     4
 74
     0
 42
0.000000002729224
 43
0.0000000001
 12
1.0
 22
0.0
 32
0.0
 13
1.0
 23
0.0
 33
0.0
 40
0.0
 40
0.0
 40
0.0
 40
0.0
 40
1.0
 40
1.0
 40
1.0
 40
1.0
 10
4825.450516712579
 20
-2750.157438481428
 30
0.0
 10
4825.450516712579
 20
-2750.157438481428
 30
0.0
 10
4821.78647151258
 20
-2750.157438481428
 30
0.0
 10
4821.78647151258
 20
-2750.157438481428
 30
0.0
  0
SPLINE
  5
DB
330
1F
100
AcDbEntity
  8
DV1_Livello_1
  6
Continuous
 62
     7
100
AcDbSpline
210
0.0
220
0.0
230
1.0
 70
    24
 71
     3
 72
     8
 73
     4
 74
     0
 42
0.000000002729224
 43
0.0000000001
 12
1.0
 22
0.0
 32
0.0
 13
1.0
 23
0.0
 33
0.0
 40
0.0
 40
0.0
 40
0.0
 40
0.0
 40
1.0
 40
1.0
 40
1.0
 40
1.0
 10
4825.450516712579
 20
-2749.058445381429
 30
0.0
 10
4825.450516712579
 20
-2749.058445381429
 30
0.0
 10
4821.78647151258
 20
-2749.058445381429
 30
0.0
 10
4821.78647151258
 20
-2749.058445381429
 30
0.0
  0
SPLINE
  5
DC
330
1F
100
AcDbEntity
  8
DV1_Livello_1
  6
Continuous
 62
     7
100
AcDbSpline
210
0.0
220
0.0
230
1.0
 70
    24
 71
     3
 72
     8
 73
     4
 74
     0
 42
0.0000000019496971
 43
0.0000000001
 12
1.0
 22
0.0
 32
0.0
 13
1.0
 23
0.0
 33
0.0
 40
0.0
 40
0.0
 40
0.0
 40
0.0
 40
1.0
 40
1.0
 40
1.0
 40
1.0
 10
4821.78647151258
 20
-2744.477286581428
 30
0.0
 10
4821.78647151258
 20
-2744.477286581428
 30
0.0
 10
4821.78647151258
 20
-2749.606288481429
 30
0.0
 10
4821.78647151258
 20
-2749.606288481429
 30
0.0
  0
SPLINE
  5
DD
330
1F
100
AcDbEntity
  8
DV1_Livello_1
  6
Continuous
 62
     7
100
AcDbSpline
210
0.0
220
0.0
230
1.0
 70
    24
 71
     3
 72
     8
 73
     4
 74
     0
 42
0.0000000049627683
 43
0.0000000001
 12
1.0
 22
0.0
 32
0.0
 13
1.0
 23
0.0
 33
0.0
 40
0.0
 40
0.0
 40
0.0
 40
0.0
 40
1.0
 40
1.0
 40
1.0
 40
1.0
 10
4799.62142311258
 20
-2754.552308581429
 30
0.0
 10
4799.62142311258
 20
-2754.552308581429
 30
0.0
 10
4801.63642751258
 20
-2754.552308581429
 30
0.0
 10
4801.63642751258
 20
-2754.552308581429
 30
0.0
  0
SPLINE
  5
DE
330
1F
100
AcDbEntity
  8
DV1_Livello_1
  6
Continuous
 62
     7
100
AcDbSpline
210
0.0
220
0.0
230
1.0
 70
    24
 71
     3
 72
     8
 73
     4
 74
     0
 42
0.0000000009925537
 43
0.0000000001
 12
1.0
 22
0.0
 32
0.0
 13
1.0
 23
0.0
 33
0.0
 40
0.0
 40
0.0
 40
0.0
 40
0.0
 40
1.0
 40
1.0
 40
1.0
 40
1.0
 10
4799.62142311258
 20
-2744.477286581428
 30
0.0
 10
4799.62142311258
 20
-2744.477286581428
 30
0.0
 10
4799.62142311258
 20
-2754.552308581429
 30
0.0
 10
4799.62142311258
 20
-2754.552308581429
 30
0.0
  0
SPLINE
  5
DF
330
1F
100
AcDbEntity
  8
DV1_Livello_1
  6
Continuous
 62
     7
100
AcDbSpline
210
0.0
220
0.0
230
1.0
 70
    24
 71
     3
 72
     8
 73
     4
 74
     0
 42
0.0000000004511608
 43
0.0000000001
 12
1.0
 22
0.0
 32
0.0
 13
1.0
 23
0.0
 33
0.0
 40
0.0
 40
0.0
 40
0.0
 40
0.0
 40
1.0
 40
1.0
 40
1.0
 40
1.0
 10
4799.62142311258
 20
-2744.477286581428
 30
0.0
 10
4799.62142311258
 20
-2744.477286581428
 30
0.0
 10
4821.78647151258
 20
-2744.477286581428
 30
0.0
 10
4821.78647151258
 20
-2744.477286581428
 30
0.0
  0
SPLINE
  5
E0
330
1F
100
AcDbEntity
  8
DV1_Livello_1
  6
Continuous
 62
     7
100
AcDbSpline
210
0.0
220
0.0
230
1.0
 70
    24
 71
     3
 72
     8
 73
     4
 74
     0
 42
0.000000001091821
 43
0.0000000001
 12
1.0
 22
0.0
 32
0.0
 13
1.0
 23
0.0
 33
0.0
 40
0.0
 40
0.0
 40
0.0
 40
0.0
 40
1.0
 40
1.0
 40
1.0
 40
1.0
 10
4853.29681931258
 20
-2731.471248881428
 30
0.0
 10
4853.29681931258
 20
-2731.471248881428
 30
0.0
 10
4853.29681931258
 20
-2740.630259581429
 30
0.0
 10
4853.29681931258
 20
-2740.630259581429
 30
0.0
  0
SPLINE
  5
E1
330
1F
100
AcDbEntity
  8
DV1_Livello_1
  6
Continuous
 62
     7
100
AcDbSpline
210
0.0
220
0.0
230
1.0
 70
    24
 71
     3
 72
     8
 73
     4
 74
     0
 42
0.0000000000617029
 43
0.0000000001
 12
1.0
 22
0.0
 32
0.0
 13
1.0
 23
0.0
 33
0.0
 40
0.0
 40
0.0
 40
0.0
 40
0.0
 40
1.0
 40
1.0
 40
1.0
 40
1.0
 10
4594.62999901258
 20
-2468.409558481429
 30
0.0
 10
4594.62999901258
 20
-2468.409558481429
 30
0.0
 10
4732.532138212579
 20
-2553.549005881428
 30
0.0
 10
4732.532138212579
 20
-2553.549005881428
 30
0.0
  0
SPLINE
  5
E2
330
1F
100
AcDbEntity
  8
DV1_Livello_1
  6
Continuous
 62
     7
100
AcDbSpline
210
0.0
220
0.0
230
1.0
 70
    24
 71
     3
 72
     8
 73
     4
 74
     0
 42
0.0000000001065382
 43
0.0000000001
 12
1.0
 22
0.0
 32
0.0
 13
1.0
 23
0.0
 33
0.0
 40
0.0
 40
0.0
 40
0.0
 40
0.0
 40
1.0
 40
1.0
 40
1.0
 40
1.0
 10
3522.988268912579
 20
-2565.920118781428
 30
0.0
 10
3522.988268912579
 20
-2565.920118781428
 30
0.0
 10
3429.12521931258
 20
-2565.920118781428
 30
0.0
 10
3429.12521931258
 20
-2565.920118781428
 30
0.0
  0
SPLINE
  5
E3
330
1F
100
AcDbEntity
  8
DV1_Livello_1
  6
Continuous
 62
     7
100
AcDbSpline
210
0.0
220
0.0
230
1.0
 70
    24
 71
     3
 72
     8
 73
     4
 74
     0
 42
0.000000000273136
 43
0.0000000001
 12
1.0
 22
0.0
 32
0.0
 13
1.0
 23
0.0
 33
0.0
 40
0.0
 40
0.0
 40
0.0
 40
0.0
 40
1.0
 40
1.0
 40
1.0
 40
1.0
 10
3472.996759312579
 20
-3059.603912881428
 30
0.0
 10
3472.996759312579
 20
-3059.603912881428
 30
0.0
 10
3436.384967112579
 20
-3059.603912881428
 30
0.0
 10
3436.384967112579
 20
-3059.603912881428
 30
0.0
  0
SPLINE
  5
E4
330
1F
100
AcDbEntity
  8
DV1_Livello_1
  6
Continuous
 62
     7
100
AcDbSpline
210
0.0
220
0.0
230
1.0
 70
    24
 71
     3
 72
     8
 73
     4
 74
     0
 42
0.0000000000254737
 43
0.0000000001
 12
1.0
 22
0.0
 32
0.0
 13
1.0
 23
0.0
 33
0.0
 40
0.0
 40
0.0
 40
0.0
 40
0.0
 40
1.0
 40
1.0
 40
1.0
 40
1.0
 10
3523.09188511258
 20
-2966.363662781429
 30
0.0
 10
3523.09188511258
 20
-2966.363662781429
 30
0.0
 10
3130.529786112579
 20
-2966.363662781429
 30
0.0
 10
3130.529786112579
 20
-2966.363662781429
 30
0.0
  0
SPLINE
  5
E5
330
1F
100
AcDbEntity
  8
DV1_Livello_1
  6
Continuous
 62
     7
100
AcDbSpline
210
0.0
220
0.0
230
1.0
 70
    24
 71
     3
 72
     8
 73
     4
 74
     0
 42
0.000000000025467
 43
0.0000000001
 12
1.0
 22
0.0
 32
0.0
 13
1.0
 23
0.0
 33
0.0
 40
0.0
 40
0.0
 40
0.0
 40
0.0
 40
1.0
 40
1.0
 40
1.0
 40
1.0
 10
3130.426169912579
 20
-2714.439611581429
 30
0.0
 10
3130.426169912579
 20
-2714.439611581429
 30
0.0
 10
3523.09188511258
 20
-2714.439611581429
 30
0.0
 10
3523.09188511258
 20
-2714.439611581429
 30
0.0
  0
SPLINE
  5
E6
330
1F
100
AcDbEntity
  8
DV1_Livello_1
  6
Continuous
 62
     7
100
AcDbSpline
210
0.0
220
0.0
230
1.0
 70
    24
 71
     3
 72
     8
 73
     4
 74
     0
 42
0.000000000025467
 43
0.0000000001
 12
1.0
 22
0.0
 32
0.0
 13
1.0
 23
0.0
 33
0.0
 40
0.0
 40
0.0
 40
0.0
 40
0.0
 40
1.0
 40
1.0
 40
1.0
 40
1.0
 10
3130.426169912579
 20
-2709.979705781428
 30
0.0
 10
3130.426169912579
 20
-2709.979705781428
 30
0.0
 10
3523.09188511258
 20
-2709.876089581428
 30
0.0
 10
3523.09188511258
 20
-2709.876089581428
 30
0.0
  0
SPLINE
  5
E7
330
1F
100
AcDbEntity
  8
DV1_Livello_1
  6
Continuous
 62
     7
100
AcDbSpline
210
0.0
220
0.0
230
1.0
 70
    24
 71
     3
 72
     8
 73
     4
 74
     0
 42
0.000000000025467
 43
0.0000000001
 12
1.0
 22
0.0
 32
0.0
 13
1.0
 23
0.0
 33
0.0
 40
0.0
 40
0.0
 40
0.0
 40
0.0
 40
1.0
 40
1.0
 40
1.0
 40
1.0
 10
3130.426169912579
 20
-2728.545744681428
 30
0.0
 10
3130.426169912579
 20
-2728.545744681428
 30
0.0
 10
3523.09188511258
 20
-2728.545744681428
 30
0.0
 10
3523.09188511258
 20
-2728.545744681428
 30
0.0
  0
SPLINE
  5
E8
330
1F
100
AcDbEntity
  8
DV1_Livello_1
  6
Continuous
 62
     7
100
AcDbSpline
210
0.0
220
0.0
230
1.0
 70
    24
 71
     3
 72
     8
 73
     4
 74
     0
 42
0.0000000000254737
 43
0.0000000001
 12
1.0
 22
0.0
 32
0.0
 13
1.0
 23
0.0
 33
0.0
 40
0.0
 40
0.0
 40
0.0
 40
0.0
 40
1.0
 40
1.0
 40
1.0
 40
1.0
 10
3130.426169912579
 20
-2565.920118781428
 30
0.0
 10
3130.426169912579
 20
-2565.920118781428
 30
0.0
 10
3522.988268912579
 20
-2565.920118781428
 30
0.0
 10
3522.988268912579
 20
-2565.920118781428
 30
0.0
  0
SPLINE
  5
E9
330
1F
100
AcDbEntity
  8
DV1_Livello_1
  6
Continuous
 62
     7
100
AcDbSpline
210
0.0
220
0.0
230
1.0
 70
    24
 71
     3
 72
     8
 73
     4
 74
     0
 42
0.0000000000202602
 43
0.0000000001
 12
1.0
 22
0.0
 32
0.0
 13
1.0
 23
0.0
 33
0.0
 40
0.0
 40
0.0
 40
0.0
 40
0.0
 40
1.0
 40
1.0
 40
1.0
 40
1.0
 10
3137.479787612579
 20
-3059.499194381428
 30
0.0
 10
3137.479787612579
 20
-3059.499194381428
 30
0.0
 10
3137.479787612579
 20
-2565.920118781428
 30
0.0
 10
3137.479787612579
 20
-2565.920118781428
 30
0.0
  0
SPLINE
  5
EA
330
1F
100
AcDbEntity
  8
DV1_Livello_1
  6
Continuous
 62
     7
100
AcDbSpline
210
0.0
220
0.0
230
1.0
 70
    24
 71
     3
 72
     8
 73
     4
 74
     0
 42
0.0000000000249723
 43
0.0000000001
 12
1.0
 22
0.0
 32
0.0
 13
1.0
 23
0.0
 33
0.0
 40
0.0
 40
0.0
 40
0.0
 40
0.0
 40
1.0
 40
1.0
 40
1.0
 40
1.0
 10
3130.529786112579
 20
-2966.363662781429
 30
0.0
 10
3130.529786112579
 20
-2966.363662781429
 30
0.0
 10
3130.426169912579
 20
-2565.920118781428
 30
0.0
 10
3130.426169912579
 20
-2565.920118781428
 30
0.0
  0
SPLINE
  5
EB
330
1F
100
AcDbEntity
  8
DV1_Livello_1
  6
Continuous
 62
     7
100
AcDbSpline
210
0.0
220
0.0
230
1.0
 70
    24
 71
     3
 72
     8
 73
     4
 74
     0
 42
0.0000000002047057
 43
0.0000000001
 12
1.0
 22
0.0
 32
0.0
 13
1.0
 23
0.0
 33
0.0
 40
0.0
 40
0.0
 40
0.0
 40
0.0
 40
1.0
 40
1.0
 40
1.0
 40
1.0
 10
3238.393148012579
 20
-2878.827815181428
 30
0.0
 10
3238.393148012579
 20
-2878.827815181428
 30
0.0
 10
3287.24377711258
 20
-2878.827815181428
 30
0.0
 10
3287.24377711258
 20
-2878.827815181428
 30
0.0
  0
SPLINE
  5
EC
330
1F
100
AcDbEntity
  8
DV1_Livello_1
  6
Continuous
 62
     7
100
AcDbSpline
210
0.0
220
0.0
230
1.0
 70
    24
 71
     3
 72
     8
 73
     4
 74
     0
 42
0.0000000002047057
 43
0.0000000001
 12
1.0
 22
0.0
 32
0.0
 13
1.0
 23
0.0
 33
0.0
 40
0.0
 40
0.0
 40
0.0
 40
0.0
 40
1.0
 40
1.0
 40
1.0
 40
1.0
 10
3238.393148012579
 20
-2789.321055181429
 30
0.0
 10
3238.393148012579
 20
-2789.321055181429
 30
0.0
 10
3287.24377711258
 20
-2789.321055181429
 30
0.0
 10
3287.24377711258
 20
-2789.321055181429
 30
0.0
  0
SPLINE
  5
ED
330
1F
100
AcDbEntity
  8
DV1_Livello_1
  6
Continuous
 62
     7
100
AcDbSpline
210
0.0
220
0.0
230
1.0
 70
    24
 71
     3
 72
     8
 73
     4
 74
     0
 42
0.0000000000357238
 43
0.0000000001
 12
1.0
 22
0.0
 32
0.0
 13
1.0
 23
0.0
 33
0.0
 40
0.0
 40
0.0
 40
0.0
 40
0.0
 40
1.0
 40
1.0
 40
1.0
 40
1.0
 10
3437.007766612579
 20
-2979.742277881429
 30
0.0
 10
3437.007766612579
 20
-2979.742277881429
 30
0.0
 10
3157.081988512579
 20
-2979.742277881429
 30
0.0
 10
3157.081988512579
 20
-2979.742277881429
 30
0.0
  0
SPLINE
  5
EE
330
1F
100
AcDbEntity
  8
DV1_Livello_1
  6
Continuous
 62
     7
100
AcDbSpline
210
0.0
220
0.0
230
1.0
 70
    24
 71
     3
 72
     8
 73
     4
 74
     0
 42
0.000000000035684
 43
0.0000000001
 12
1.0
 22
0.0
 32
0.0
 13
1.0
 23
0.0
 33
0.0
 40
0.0
 40
0.0
 40
0.0
 40
0.0
 40
1.0
 40
1.0
 40
1.0
 40
1.0
 10
3156.147238112579
 20
-2998.203598281429
 30
0.0
 10
3156.147238112579
 20
-2998.203598281429
 30
0.0
 10
3436.384967112579
 20
-2998.203598281429
 30
0.0
 10
3436.384967112579
 20
-2998.203598281429
 30
0.0
  0
SPLINE
  5
EF
330
1F
100
AcDbEntity
  8
DV1_Livello_1
  6
Continuous
 62
     7
100
AcDbSpline
210
0.0
220
0.0
230
1.0
 70
    24
 71
     3
 72
     8
 73
     4
 74
     0
 42
0.000000000035684
 43
0.0000000001
 12
1.0
 22
0.0
 32
0.0
 13
1.0
 23
0.0
 33
0.0
 40
0.0
 40
0.0
 40
0.0
 40
0.0
 40
1.0
 40
1.0
 40
1.0
 40
1.0
 10
3156.147238112579
 20
-3043.527969681429
 30
0.0
 10
3156.147238112579
 20
-3043.527969681429
 30
0.0
 10
3436.384967112579
 20
-3043.527969681429
 30
0.0
 10
3436.384967112579
 20
-3043.527969681429
 30
0.0
  0
SPLINE
  5
F0
330
1F
100
AcDbEntity
  8
DV1_Livello_1
  6
Continuous
 62
     7
100
AcDbSpline
210
0.0
220
0.0
230
1.0
 70
    24
 71
     3
 72
     8
 73
     4
 74
     0
 42
0.0000000001073704
 43
0.0000000001
 12
1.0
 22
0.0
 32
0.0
 13
1.0
 23
0.0
 33
0.0
 40
0.0
 40
0.0
 40
0.0
 40
0.0
 40
1.0
 40
1.0
 40
1.0
 40
1.0
 10
3156.147238112579
 20
-2966.363662781429
 30
0.0
 10
3156.147238112579
 20
-2966.363662781429
 30
0.0
 10
3156.147238112579
 20
-3059.499194381428
 30
0.0
 10
3156.147238112579
 20
-3059.499194381428
 30
0.0
  0
SPLINE
  5
F1
330
1F
100
AcDbEntity
  8
DV1_Livello_1
  6
Continuous
 62
     7
100
AcDbSpline
210
0.0
220
0.0
230
1.0
 70
    24
 71
     3
 72
     8
 73
     4
 74
     0
 42
0.0000000005356918
 43
0.0000000001
 12
1.0
 22
0.0
 32
0.0
 13
1.0
 23
0.0
 33
0.0
 40
0.0
 40
0.0
 40
0.0
 40
0.0
 40
1.0
 40
1.0
 40
1.0
 40
1.0
 10
3156.147238112579
 20
-3059.499194381428
 30
0.0
 10
3156.147238112579
 20
-3059.499194381428
 30
0.0
 10
3137.479787612579
 20
-3059.499194381428
 30
0.0
 10
3137.479787612579
 20
-3059.499194381428
 30
0.0
  0
SPLINE
  5
F2
330
1F
100
AcDbEntity
  8
DV1_Livello_1
  6
Continuous
 62
     7
100
AcDbSpline
210
0.0
220
0.0
230
1.0
 70
    24
 71
     3
 72
     8
 73
     4
 74
     0
 42
0.0000000001117234
 43
0.0000000001
 12
1.0
 22
0.0
 32
0.0
 13
1.0
 23
0.0
 33
0.0
 40
0.0
 40
0.0
 40
0.0
 40
0.0
 40
1.0
 40
1.0
 40
1.0
 40
1.0
 10
3238.393148012579
 20
-2789.321055181429
 30
0.0
 10
3238.393148012579
 20
-2789.321055181429
 30
0.0
 10
3238.393148012579
 20
-2878.827815181428
 30
0.0
 10
3238.393148012579
 20
-2878.827815181428
 30
0.0
  0
SPLINE
  5
F3
330
1F
100
AcDbEntity
  8
DV1_Livello_1
  6
Continuous
 62
     7
100
AcDbSpline
210
0.0
220
0.0
230
1.0
 70
     8
 71
     3
 72
    12
 73
     8
 74
     0
 42
0.0000000000846516
 43
0.0000000001
 12
1.0
 22
0.0
 32
0.0
 13
1.0
 23
0.0
 33
0.0
 40
0.0
 40
0.0
 40
0.0
 40
0.0
 40
0.3333333333333333
 40
0.3333333333333333
 40
0.6666666666666666
 40
0.6666666666666666
 40
1.0
 40
1.0
 40
1.0
 40
1.0
 10
3238.393148012579
 20
-2878.827815181428
 30
0.0
 10
3238.393148012579
 20
-2878.827815181428
 30
0.0
 10
3224.080884812579
 20
-2878.827815181428
 30
0.0
 10
3224.080884812579
 20
-2878.827815181428
 30
0.0
 10
3224.080884812579
 20
-2789.321055181429
 30
0.0
 10
3224.080884812579
 20
-2789.321055181429
 30
0.0
 10
3238.393148012579
 20
-2789.321055181429
 30
0.0
 10
3238.393148012579
 20
-2789.321055181429
 30
0.0
  0
SPLINE
  5
F4
330
1F
100
AcDbEntity
  8
DV1_Livello_1
  6
Continuous
 62
     7
100
AcDbSpline
210
0.0
220
0.0
230
1.0
 70
    24
 71
     3
 72
     8
 73
     4
 74
     0
 42
0.0000000001072498
 43
0.0000000001
 12
1.0
 22
0.0
 32
0.0
 13
1.0
 23
0.0
 33
0.0
 40
0.0
 40
0.0
 40
0.0
 40
0.0
 40
1.0
 40
1.0
 40
1.0
 40
1.0
 10
3436.384967112579
 20
-2966.363662781429
 30
0.0
 10
3436.384967112579
 20
-2966.363662781429
 30
0.0
 10
3436.384967112579
 20
-3059.603912881428
 30
0.0
 10
3436.384967112579
 20
-3059.603912881428
 30
0.0
  0
SPLINE
  5
F5
330
1F
100
AcDbEntity
  8
DV1_Livello_1
  6
Continuous
 62
     7
100
AcDbSpline
210
0.0
220
0.0
230
1.0
 70
    24
 71
     3
 72
     8
 73
     4
 74
     0
 42
0.0000000000797505
 43
0.0000000001
 12
1.0
 22
0.0
 32
0.0
 13
1.0
 23
0.0
 33
0.0
 40
0.0
 40
0.0
 40
0.0
 40
0.0
 40
1.0
 40
1.0
 40
1.0
 40
1.0
 10
3287.24377711258
 20
-2812.450616081429
 30
0.0
 10
3287.24377711258
 20
-2812.450616081429
 30
0.0
 10
3412.63481131258
 20
-2812.450616081429
 30
0.0
 10
3412.63481131258
 20
-2812.450616081429
 30
0.0
  0
SPLINE
  5
F6
330
1F
100
AcDbEntity
  8
DV1_Livello_1
  6
Continuous
 62
     7
100
AcDbSpline
210
0.0
220
0.0
230
1.0
 70
    24
 71
     3
 72
     8
 73
     4
 74
     0
 42
0.0000000000797505
 43
0.0000000001
 12
1.0
 22
0.0
 32
0.0
 13
1.0
 23
0.0
 33
0.0
 40
0.0
 40
0.0
 40
0.0
 40
0.0
 40
1.0
 40
1.0
 40
1.0
 40
1.0
 10
3287.24377711258
 20
-2860.055646181429
 30
0.0
 10
3287.24377711258
 20
-2860.055646181429
 30
0.0
 10
3412.63481131258
 20
-2860.055646181429
 30
0.0
 10
3412.63481131258
 20
-2860.055646181429
 30
0.0
  0
SPLINE
  5
F7
330
1F
100
AcDbEntity
  8
DV1_Livello_1
  6
Continuous
 62
     7
100
AcDbSpline
210
0.0
220
0.0
230
1.0
 70
    24
 71
     3
 72
     8
 73
     4
 74
     0
 42
0.0000000001117234
 43
0.0000000001
 12
1.0
 22
0.0
 32
0.0
 13
1.0
 23
0.0
 33
0.0
 40
0.0
 40
0.0
 40
0.0
 40
0.0
 40
1.0
 40
1.0
 40
1.0
 40
1.0
 10
3287.24377711258
 20
-2789.321055181429
 30
0.0
 10
3287.24377711258
 20
-2789.321055181429
 30
0.0
 10
3287.24377711258
 20
-2878.827815181428
 30
0.0
 10
3287.24377711258
 20
-2878.827815181428
 30
0.0
  0
SPLINE
  5
F8
330
1F
100
AcDbEntity
  8
DV1_Livello_1
  6
Continuous
 62
     7
100
AcDbSpline
210
0.0
220
0.0
230
1.0
 70
    24
 71
     3
 72
     8
 73
     4
 74
     0
 42
0.0000000002100618
 43
0.0000000001
 12
1.0
 22
0.0
 32
0.0
 13
1.0
 23
0.0
 33
0.0
 40
0.0
 40
0.0
 40
0.0
 40
0.0
 40
1.0
 40
1.0
 40
1.0
 40
1.0
 10
3412.63481131258
 20
-2789.321055181429
 30
0.0
 10
3412.63481131258
 20
-2789.321055181429
 30
0.0
 10
3365.02978121258
 20
-2789.321055181429
 30
0.0
 10
3365.02978121258
 20
-2789.321055181429
 30
0.0
  0
SPLINE
  5
F9
330
1F
100
AcDbEntity
  8
DV1_Livello_1
  6
Continuous
 62
     7
100
AcDbSpline
210
0.0
220
0.0
230
1.0
 70
    24
 71
     3
 72
     8
 73
     4
 74
     0
 42
0.0000000002100618
 43
0.0000000001
 12
1.0
 22
0.0
 32
0.0
 13
1.0
 23
0.0
 33
0.0
 40
0.0
 40
0.0
 40
0.0
 40
0.0
 40
1.0
 40
1.0
 40
1.0
 40
1.0
 10
3412.63481131258
 20
-2878.827815181428
 30
0.0
 10
3412.63481131258
 20
-2878.827815181428
 30
0.0
 10
3365.02978121258
 20
-2878.827815181428
 30
0.0
 10
3365.02978121258
 20
-2878.827815181428
 30
0.0
  0
SPLINE
  5
FA
330
1F
100
AcDbEntity
  8
DV1_Livello_1
  6
Continuous
 62
     7
100
AcDbSpline
210
0.0
220
0.0
230
1.0
 70
    24
 71
     3
 72
     8
 73
     4
 74
     0
 42
0.0000000005327035
 43
0.0000000001
 12
1.0
 22
0.0
 32
0.0
 13
1.0
 23
0.0
 33
0.0
 40
0.0
 40
0.0
 40
0.0
 40
0.0
 40
1.0
 40
1.0
 40
1.0
 40
1.0
 10
3365.02978121258
 20
-2860.055646181429
 30
0.0
 10
3365.02978121258
 20
-2860.055646181429
 30
0.0
 10
3365.02978121258
 20
-2878.827815181428
 30
0.0
 10
3365.02978121258
 20
-2878.827815181428
 30
0.0
  0
SPLINE
  5
FB
330
1F
100
AcDbEntity
  8
DV1_Livello_1
  6
Continuous
 62
     7
100
AcDbSpline
210
0.0
220
0.0
230
1.0
 70
    24
 71
     3
 72
     8
 73
     4
 74
     0
 42
0.0000000004323472
 43
0.0000000001
 12
1.0
 22
0.0
 32
0.0
 13
1.0
 23
0.0
 33
0.0
 40
0.0
 40
0.0
 40
0.0
 40
0.0
 40
1.0
 40
1.0
 40
1.0
 40
1.0
 10
3365.02978121258
 20
-2789.321055181429
 30
0.0
 10
3365.02978121258
 20
-2789.321055181429
 30
0.0
 10
3365.02978121258
 20
-2812.450616081429
 30
0.0
 10
3365.02978121258
 20
-2812.450616081429
 30
0.0
  0
SPLINE
  5
FC
330
1F
100
AcDbEntity
  8
DV1_Livello_1
  6
Continuous
 62
     7
100
AcDbSpline
210
0.0
220
0.0
230
1.0
 70
     8
 71
     3
 72
    12
 73
     8
 74
     0
 42
0.0000000000536547
 43
0.0000000001
 12
1.0
 22
0.0
 32
0.0
 13
1.0
 23
0.0
 33
0.0
 40
0.0
 40
0.0
 40
0.0
 40
0.0
 40
0.3333333333333333
 40
0.3333333333333333
 40
0.6666666666666666
 40
0.6666666666666666
 40
1.0
 40
1.0
 40
1.0
 40
1.0
 10
3412.63481131258
 20
-2789.321055181429
 30
0.0
 10
3412.63481131258
 20
-2789.321055181429
 30
0.0
 10
3461.06987331258
 20
-2789.321055181429
 30
0.0
 10
3461.06987331258
 20
-2789.321055181429
 30
0.0
 10
3461.06987331258
 20
-2878.827815181428
 30
0.0
 10
3461.06987331258
 20
-2878.827815181428
 30
0.0
 10
3412.63481131258
 20
-2878.827815181428
 30
0.0
 10
3412.63481131258
 20
-2878.827815181428
 30
0.0
  0
SPLINE
  5
FD
330
1F
100
AcDbEntity
  8
DV1_Livello_1
  6
Continuous
 62
     7
100
AcDbSpline
210
0.0
220
0.0
230
1.0
 70
    24
 71
     3
 72
     8
 73
     4
 74
     0
 42
0.0000000001117234
 43
0.0000000001
 12
1.0
 22
0.0
 32
0.0
 13
1.0
 23
0.0
 33
0.0
 40
0.0
 40
0.0
 40
0.0
 40
0.0
 40
1.0
 40
1.0
 40
1.0
 40
1.0
 10
3412.63481131258
 20
-2789.321055181429
 30
0.0
 10
3412.63481131258
 20
-2789.321055181429
 30
0.0
 10
3412.63481131258
 20
-2878.827815181428
 30
0.0
 10
3412.63481131258
 20
-2878.827815181428
 30
0.0
  0
SPLINE
  5
FE
330
1F
100
AcDbEntity
  8
DV1_Livello_1
  6
Continuous
 62
     7
100
AcDbSpline
210
0.0
220
0.0
230
1.0
 70
    24
 71
     3
 72
     8
 73
     4
 74
     0
 42
0.0000000000249723
 43
0.0000000001
 12
1.0
 22
0.0
 32
0.0
 13
1.0
 23
0.0
 33
0.0
 40
0.0
 40
0.0
 40
0.0
 40
0.0
 40
1.0
 40
1.0
 40
1.0
 40
1.0
 10
3523.09188511258
 20
-2966.363662781429
 30
0.0
 10
3523.09188511258
 20
-2966.363662781429
 30
0.0
 10
3522.988268912579
 20
-2565.920118781428
 30
0.0
 10
3522.988268912579
 20
-2565.920118781428
 30
0.0
  0
SPLINE
  5
FF
330
1F
100
AcDbEntity
  8
DV1_Livello_1
  6
Continuous
 62
     7
100
AcDbSpline
210
0.0
220
0.0
230
1.0
 70
    24
 71
     3
 72
     8
 73
     4
 74
     0
 42
0.0000000000252668
 43
0.0000000001
 12
1.0
 22
0.0
 32
0.0
 13
1.0
 23
0.0
 33
0.0
 40
0.0
 40
0.0
 40
0.0
 40
0.0
 40
1.0
 40
1.0
 40
1.0
 40
1.0
 10
3523.09188511258
 20
-2961.696524581429
 30
0.0
 10
3523.09188511258
 20
-2961.696524581429
 30
0.0
 10
3522.988268912579
 20
-2565.920118781428
 30
0.0
 10
3522.988268912579
 20
-2565.920118781428
 30
0.0
  0
SPLINE
  5
100
330
1F
100
AcDbEntity
  8
DV1_Livello_1
  6
Continuous
 62
     7
100
AcDbSpline
210
0.0
220
0.0
230
1.0
 70
    24
 71
     3
 72
     8
 73
     4
 74
     0
 42
0.0000000001072498
 43
0.0000000001
 12
1.0
 22
0.0
 32
0.0
 13
1.0
 23
0.0
 33
0.0
 40
0.0
 40
0.0
 40
0.0
 40
0.0
 40
1.0
 40
1.0
 40
1.0
 40
1.0
 10
3472.996759312579
 20
-2966.363662781429
 30
0.0
 10
3472.996759312579
 20
-2966.363662781429
 30
0.0
 10
3472.996759312579
 20
-3059.603912881428
 30
0.0
 10
3472.996759312579
 20
-3059.603912881428
 30
0.0
  0
ELLIPSE
  5
101
330
1F
100
AcDbEntity
  8
DV1_Livello_1
  6
Continuous
 62
     7
100
AcDbEllipse
 10
4042.2178655126
 20
-2838.1981394814
 30
0.0
 11
13.3455461
 21
0.0
 31
0.0
210
0.0
220
0.0
230
1.0
 40
0.968778
 41
0.0
 42
6.283185307179586
  0
ELLIPSE
  5
102
330
1F
100
AcDbEntity
  8
DV1_Livello_1
  6
Continuous
 62
     7
100
AcDbEllipse
 10
4042.5000543126
 20
-2838.4274178814
 30
0.0
 11
7.338011100000002
 21
0.0
 31
0.0
210
0.0
220
0.0
230
1.0
 40
0.968755
 41
0.0
 42
6.283185307179586
  0
SPLINE
  5
103
330
1F
100
AcDbEntity
  8
DV1_Livello_1
  6
Continuous
 62
     7
100
AcDbSpline
210
0.0
220
0.0
230
1.0
 70
     8
 71
     3
 72
    49
 73
    45
 74
     0
 42
0.0000000000068708
 43
0.0000000001
 12
1.0
 22
0.0
 32
0.0
 13
1.0
 23
0.0
 33
0.0
 40
0.0
 40
0.0
 40
0.0
 40
0.0
 40
0.0625
 40
0.0625
 40
0.0625
 40
0.125
 40
0.125
 40
0.125
 40
0.1875
 40
0.1875
 40
0.25
 40
0.25
 40
0.25
 40
0.3125
 40
0.3125
 40
0.3125
 40
0.375
 40
0.375
 40
0.375
 40
0.4375
 40
0.4375
 40
0.5
 40
0.5
 40
0.5
 40
0.5625
 40
0.5625
 40
0.5625
 40
0.625
 40
0.625
 40
0.625
 40
0.6875
 40
0.6875
 40
0.75
 40
0.75
 40
0.75
 40
0.8125
 40
0.8125
 40
0.8125
 40
0.875
 40
0.875
 40
0.875
 40
0.9375
 40
0.9375
 40
1.0
 40
1.0
 40
1.0
 40
1.0
 10
3932.699951312579
 20
-3138.075547581429
 30
0.0
 10
3932.699951312579
 20
-3132.881509981428
 30
0.0
 10
3926.55903801258
 20
-3128.670723981429
 30
0.0
 10
3918.984032412579
 20
-3128.670723981429
 30
0.0
 10
3911.410129112579
 20
-3128.670723981429
 30
0.0
 10
3905.269215812579
 20
-3132.881509981428
 30
0.0
 10
3905.269215812579
 20
-3138.075547581429
 30
0.0
 10
3905.269215812579
 20
-3148.463622781429
 30
0.0
 10
3917.549940112579
 20
-3156.885194781429
 30
0.0
 10
3947.84996251258
 20
-3156.885194781429
 30
0.0
 10
3960.13068681258
 20
-3148.463622781429
 30
0.0
 10
3960.13068681258
 20
-3138.075547581429
 30
0.0
 10
3960.13068681258
 20
-3122.493434781429
 30
0.0
 10
3941.709049212579
 20
-3109.861076781429
 30
0.0
 10
3918.984032412579
 20
-3109.861076781429
 30
0.0
 10
3896.260117912579
 20
-3109.861076781429
 30
0.0
 10
3877.83848031258
 20
-3122.493434781429
 30
0.0
 10
3877.83848031258
 20
-3138.075547581429
 30
0.0
 10
3877.83848031258
 20
-3158.851697981429
 30
0.0
 10
3902.401031212579
 20
-3175.694841981428
 30
0.0
 10
3962.998871412579
 20
-3175.694841981428
 30
0.0
 10
3987.561422312579
 20
-3158.851697981429
 30
0.0
 10
3987.561422312579
 20
-3138.075547581429
 30
0.0
 10
3987.561422312579
 20
-3112.105359581429
 30
0.0
 10
3956.85795811258
 20
-3091.051429581428
 30
0.0
 10
3918.984032412579
 20
-3091.051429581428
 30
0.0
 10
3881.111209012579
 20
-3091.051429581428
 30
0.0
 10
3850.407744812579
 20
-3112.105359581429
 30
0.0
 10
3850.407744812579
 20
-3138.075547581429
 30
0.0
 10
3850.407744812579
 20
-3169.240875481429
 30
0.0
 10
3887.251020012579
 20
-3194.504489181429
 30
0.0
 10
3978.14888261258
 20
-3194.504489181429
 30
0.0
 10
4014.99215781258
 20
-3169.240875481429
 30
0.0
 10
4014.99215781258
 20
-3138.075547581429
 30
0.0
 10
4014.99215781258
 20
-3101.716182081429
 30
0.0
 10
3972.007969312579
 20
-3072.241782381428
 30
0.0
 10
3918.984032412579
 20
-3072.241782381428
 30
0.0
 10
3865.961197812579
 20
-3072.241782381428
 30
0.0
 10
3822.977009312579
 20
-3101.716182081429
 30
0.0
 10
3822.977009312579
 20
-3138.075547581429
 30
0.0
 10
3822.977009312579
 20
-3179.628950681429
 30
0.0
 10
3872.10211111258
 20
-3213.314136381428
 30
0.0
 10
3993.297791512579
 20
-3213.314136381428
 30
0.0
 10
4042.42289331258
 20
-3179.628950681429
 30
0.0
 10
4042.42289331258
 20
-3138.075547581429
 30
0.0
  0
LINE
  5
105
330
1F
100
AcDbEntity
  8
DV1_Predefinito
  6
Continuous
 62
     7
100
AcDbLine
 10
4042.5000543126
 20
-2838.4274178814
 30
0.0
 11
4042.4228933126
 21
-3138.0755475814
 31
0.0
  0
CIRCLE
  5
106
330
1F
100
AcDbEntity
  8
DV1_Predefinito
  6
Continuous
 62
     7
100
AcDbCircle
 10
3856.5993639126
 20
-2621.2037706814
 30
0.0
 40
24.0
  0
CIRCLE
  5
107
330
1F
100
AcDbEntity
  8
DV1_Predefinito
  6
Continuous
 62
     7
100
AcDbCircle
 10
3712.5188332126
 20
-2791.3900722814
 30
0.0
 40
24.0
  0
CIRCLE
  5
108
330
1F
100
AcDbEntity
  8
DV1_Predefinito
  6
Continuous
 62
     7
100
AcDbCircle
 10
3759.1411628626
 20
-2837.7373780814
 30
0.0
 40
24.0
  0
CIRCLE
  5
109
330
1F
100
AcDbEntity
  8
DV1_Predefinito
  6
Continuous
 62
     7
100
AcDbCircle
 10
3810.0685251626
 20
-2575.9565602814
 30
0.0
 40
24.0
  0
INSERT
  5
10B
330
1F
100
AcDbEntity
  8
Predefinito
100
AcDbBlockReference
  2
GDimGGroup
 10
0.0
 20
0.0
 30
0.0
  0
INSERT
  5
115
330
1F
100
AcDbEntity
  8
Predefinito
100
AcDbBlockReference
  2
GDimGGroup1
 10
0.0
 20
0.0
 30
0.0
  0
INSERT
  5
11F
330
1F
100
AcDbEntity
  8
Predefinito
100
AcDbBlockReference
  2
GDimGGroup2
 10
0.0
 20
0.0
 30
0.0
  0
INSERT
  5
129
330
1F
100
AcDbEntity
  8
Predefinito
100
AcDbBlockReference
  2
GDimGGroup3
 10
0.0
 20
0.0
 30
0.0
  0
INSERT
  5
133
330
1F
100
AcDbEntity
  8
Predefinito
100
AcDbBlockReference
  2
GDimGGroup4
 10
0.0
 20
0.0
 30
0.0
  0
INSERT
  5
13D
330
1F
100
AcDbEntity
  8
Predefinito
100
AcDbBlockReference
  2
GDimGGroup5
 10
0.0
 20
0.0
 30
0.0
  0
INSERT
  5
147
330
1F
100
AcDbEntity
  8
Predefinito
100
AcDbBlockReference
  2
GDimGGroup6
 10
0.0
 20
0.0
 30
0.0
  0
INSERT
  5
151
330
1F
100
AcDbEntity
  8
Predefinito
100
AcDbBlockReference
  2
GDimGGroup7
 10
0.0
 20
0.0
 30
0.0
  0
INSERT
  5
15C
330
1F
100
AcDbEntity
  8
Predefinito
100
AcDbBlockReference
  2
GDimGGroup8
 10
0.0
 20
0.0
 30
0.0
  0
INSERT
  5
166
330
1F
100
AcDbEntity
  8
Predefinito
100
AcDbBlockReference
  2
GDimGGroup9
 10
0.0
 20
0.0
 30
0.0
  0
INSERT
  5
170
330
1F
100
AcDbEntity
  8
Predefinito
100
AcDbBlockReference
  2
GDimGGroup10
 10
0.0
 20
0.0
 30
0.0
  0
INSERT
  5
17A
330
1F
100
AcDbEntity
  8
Predefinito
100
AcDbBlockReference
  2
GDimGGroup11
 10
0.0
 20
0.0
 30
0.0
  0
ENDSEC
  0
SECTION
  2
OBJECTS
  0
DICTIONARY
  5
C
330
0
100
AcDbDictionary
281
     1
  3
ACAD_GROUP
350
D
  3
ACAD_LAYOUT
350
1A
  3
ACAD_MATERIAL
350
3B
  3
ACAD_MLEADERSTYLE
350
185
  3
ACAD_MLINESTYLE
350
17
  3
ACAD_PLOTSETTINGS
350
19
  3
ACAD_PLOTSTYLENAME
350
E
  3
ACAD_VISUALSTYLE
350
2A
  3
AcDbVariableDictionary
350
183
  0
DICTIONARY
  5
D
102
{ACAD_REACTORS
330
C
102
}
330
C
100
AcDbDictionary
281
     1
  0
DICTIONARY
  5
1A
102
{ACAD_REACTORS
330
C
102
}
330
C
100
AcDbDictionary
281
     1
  3
Layout1
350
1E
  3
Model
350
22
  0
DICTIONARY
  5
3B
102
{ACAD_REACTORS
330
C
102
}
330
C
100
AcDbDictionary
281
     1
  3
ByBlock
350
3D
  3
ByLayer
350
3C
  3
Global
350
3E
  0
DICTIONARY
  5
185
102
{ACAD_REACTORS
330
C
102
}
330
C
100
AcDbDictionary
281
     1
  0
DICTIONARY
  5
17
102
{ACAD_REACTORS
330
C
102
}
330
C
100
AcDbDictionary
281
     1
  3
Standard
350
18
  0
DICTIONARY
  5
19
102
{ACAD_REACTORS
330
C
102
}
330
C
100
AcDbDictionary
281
     1
  0
ACDBDICTIONARYWDFLT
  5
E
102
{ACAD_REACTORS
330
C
102
}
330
C
100
AcDbDictionary
281
     1
  3
Normal
350
F
100
AcDbDictionaryWithDefault
340
F
  0
DICTIONARY
  5
2A
102
{ACAD_REACTORS
330
C
102
}
330
C
100
AcDbDictionary
281
     1
  3
2dWireframe
350
2F
  3
3D Hidden
350
31
  3
3dWireframe
350
30
  3
Basic
350
32
  3
Brighten
350
36
  3
ColorChange
350
3A
  3
Conceptual
350
34
  3
Dim
350
35
  3
Facepattern
350
39
  3
Flat
350
2B
  3
FlatWithEdges
350
2C
  3
Gouraud
350
2D
  3
GouraudWithEdges
350
2E
  3
Linepattern
350
38
  3
Realistic
350
33
  3
Thicken
350
37
  0
DICTIONARY
  5
183
102
{ACAD_REACTORS
330
C
102
}
330
C
100
AcDbDictionary
281
     1
  3
DIMASSOC
350
188
  3
HIDETEXT
350
189
  3
PSOLHEIGHT
350
187
  3
PSOLWIDTH
350
186
  0
LAYOUT
  5
1E
102
{ACAD_REACTORS
330
1A
102
}
330
1A
100
AcDbPlotSettings
  1

  2
none_device
  4

  6

 40
0.0
 41
0.0
 42
0.0
 43
0.0
 44
0.0
 45
0.0
 46
0.0
 47
0.0
 48
0.0
 49
0.0
140
0.0
141
0.0
142
1.0
143
1.0
 70
   688
 72
     0
 73
     0
 74
     5
  7

 75
    16
147
1.0
148
0.0
149
0.0
100
AcDbLayout
  1
Layout1
 70
     1
 71
     1
 10
0.0
 20
0.0
 11
297.0
 21
210.0
 12
0.0
 22
0.0
 32
0.0
 14
0.0
 24
0.0
 34
0.0
 15
297.0
 25
210.0
 35
0.0
146
0.0
 13
0.0
 23
0.0
 33
0.0
 16
1.0
 26
0.0
 36
0.0
 17
0.0
 27
1.0
 37
0.0
 76
     0
330
1B
  0
LAYOUT
  5
22
102
{ACAD_REACTORS
330
1A
102
}
330
1A
100
AcDbPlotSettings
  1

  2
none_device
  4

  6

 40
0.0
 41
0.0
 42
0.0
 43
0.0
 44
0.0
 45
0.0
 46
0.0
 47
0.0
 48
0.0
 49
0.0
140
0.0
141
0.0
142
1.0
143
1.0
 70
  1712
 72
     0
 73
     0
 74
     0
  7

 75
     0
147
1.0
148
0.0
149
0.0
100
AcDbLayout
  1
Model
 70
     1
 71
     0
 10
0.0
 20
0.0
 11
297.0
 21
210.0
 12
0.0
 22
0.0
 32
0.0
 14
0.0
 24
0.0
 34
0.0
 15
297.0
 25
210.0
 35
0.0
146
0.0
 13
0.0
 23
0.0
 33
0.0
 16
1.0
 26
0.0
 36
0.0
 17
0.0
 27
1.0
 37
0.0
 76
     0
330
1F
331
29
  0
MATERIAL
  5
3D
102
{ACAD_REACTORS
330
3B
102
}
102
{ACAD_XDICTIONARY
360
1AC
102
}
330
3B
100
AcDbMaterial
  1
ByBlock
  0
MATERIAL
  5
3C
102
{ACAD_REACTORS
330
3B
102
}
102
{ACAD_XDICTIONARY
360
1AA
102
}
330
3B
100
AcDbMaterial
  1
ByLayer
  0
MATERIAL
  5
3E
102
{ACAD_REACTORS
330
3B
102
}
102
{ACAD_XDICTIONARY
360
1AE
102
}
330
3B
100
AcDbMaterial
  1
Global
  0
MLINESTYLE
  5
18
102
{ACAD_REACTORS
330
17
102
}
330
17
100
AcDbMlineStyle
  2
Standard
 70
     0
  3

 62
   256
 51
90.0
 52
90.0
 71
     2
 49
0.5
 62
   256
  6
BYLAYER
 49
-0.5
 62
   256
  6
BYLAYER
  0
ACDBPLACEHOLDER
  5
F
102
{ACAD_REACTORS
330
E
102
}
330
E
  0
VISUALSTYLE
  5
2F
102
{ACAD_REACTORS
330
2A
102
}
102
{ACAD_XDICTIONARY
360
192
102
}
330
2A
100
AcDbVisualStyle
  2
2dWireframe
 70
     4
 71
     0
 72
     2
 73
     0
 90
        0
 40
-0.6
 41
-30.0
 62
     5
 63
     7
 74
     1
 91
        4
 64
     7
 65
   257
 75
     1
175
     1
 42
1.0
 92
        0
 66
   257
 43
1.0
 76
     1
 77
     6
 78
     2
 67
     7
 79
     5
170
     0
171
     0
290
     0
174
     0
 93
        1
 44
0.0
173
     0
291
     0
 45
0.0
1001
ACAD
1000
AcDbSavedByObjectVersion
1070
     0
  0
VISUALSTYLE
  5
31
102
{ACAD_REACTORS
330
2A
102
}
102
{ACAD_XDICTIONARY
360
196
102
}
330
2A
100
AcDbVisualStyle
  2
3D Hidden
 70
     6
 71
     1
 72
     2
 73
     2
 90
        0
 40
-0.6
 41
-30.0
 62
     5
 63
     7
 74
     2
 91
        2
 64
     7
 65
   257
 75
     2
175
     1
 42
40.0
 92
        0
 66
   257
 43
1.0
 76
     1
 77
     6
 78
     2
 67
     7
 79
     3
170
     0
171
     0
290
     0
174
     0
 93
        1
 44
0.0
173
     0
291
     0
 45
0.0
1001
ACAD
1000
AcDbSavedByObjectVersion
1070
     0
  0
VISUALSTYLE
  5
30
102
{ACAD_REACTORS
330
2A
102
}
102
{ACAD_XDICTIONARY
360
194
102
}
330
2A
100
AcDbVisualStyle
  2
3dWireframe
 70
     5
 71
     0
 72
     2
 73
     0
 90
        0
 40
-0.6
 41
-30.0
 62
     5
 63
     7
 74
     1
 91
        4
 64
     7
 65
   257
 75
     1
175
     1
 42
1.0
 92
        0
 66
   257
 43
1.0
 76
     1
 77
     6
 78
     2
 67
     7
 79
     5
170
     0
171
     0
290
     0
174
     0
 93
        1
 44
0.0
173
     0
291
     0
 45
0.0
1001
ACAD
1000
AcDbSavedByObjectVersion
1070
     0
  0
VISUALSTYLE
  5
32
102
{ACAD_REACTORS
330
2A
102
}
102
{ACAD_XDICTIONARY
360
198
102
}
330
2A
100
AcDbVisualStyle
  2
Basic
 70
     7
 71
     1
 72
     0
 73
     1
 90
        0
 40
-0.6
 41
-30.0
 62
     5
 63
     7
 74
     0
 91
        4
 64
     7
 65
   257
 75
     1
175
     1
 42
1.0
 92
        8
 66
     7
 43
1.0
 76
     1
 77
     6
 78
     2
 67
     7
 79
     5
170
     0
171
     0
290
     0
174
     0
 93
        1
 44
0.0
173
     0
291
     1
 45
0.0
1001
ACAD
1000
AcDbSavedByObjectVersion
1070
     0
  0
VISUALSTYLE
  5
36
102
{ACAD_REACTORS
330
2A
102
}
102
{ACAD_XDICTIONARY
360
1A0
102
}
330
2A
100
AcDbVisualStyle
  2
Brighten
 70
    12
 71
     2
 72
     2
 73
     0
 90
        0
 40
-0.6
 41
-30.0
 62
     5
 63
     7
 74
     1
 91
        4
 64
     7
 65
   257
 75
     1
175
     1
 42
1.0
 92
        8
 66
     7
 43
1.0
 76
     1
 77
     6
 78
     2
 67
     7
 79
     5
170
     0
171
     0
290
     0
174
     0
 93
        1
 44
50.0
173
     0
291
     1
 45
0.0
1001
ACAD
1000
AcDbSavedByObjectVersion
1070
     0
  0
VISUALSTYLE
  5
3A
102
{ACAD_REACTORS
330
2A
102
}
102
{ACAD_XDICTIONARY
360
1A8
102
}
330
2A
100
AcDbVisualStyle
  2
ColorChange
 70
    16
 71
     2
 72
     2
 73
     3
 90
        0
 40
-0.6
 41
-30.0
 62
     5
 63
     8
 74
     1
 91
        4
 64
     7
 65
   257
 75
     1
175
     1
 42
1.0
 92
        8
 66
     8
 43
1.0
 76
     1
 77
     6
 78
     2
 67
     7
 79
     5
170
     0
171
     0
290
     0
174
     0
 93
        1
 44
0.0
173
     0
291
     1
 45
0.0
1001
ACAD
1000
AcDbSavedByObjectVersion
1070
     0
  0
VISUALSTYLE
  5
34
102
{ACAD_REACTORS
330
2A
102
}
102
{ACAD_XDICTIONARY
360
19C
102
}
330
2A
100
AcDbVisualStyle
  2
Conceptual
 70
     9
 71
     3
 72
     2
 73
     0
 90
        0
 40
-0.6
 41
-30.0
 62
     5
 63
     7
 74
     2
 91
        2
 64
     7
 65
   257
 75
     1
175
     1
 42
40.0
 92
        8
 66
     7
 43
1.0
 76
     1
 77
     6
 78
     2
 67
     7
 79
     3
170
     0
171
     0
290
     0
174
     0
 93
        1
 44
0.0
173
     0
291
     0
 45
0.0
1001
ACAD
1000
AcDbSavedByObjectVersion
1070
     0
  0
VISUALSTYLE
  5
35
102
{ACAD_REACTORS
330
2A
102
}
102
{ACAD_XDICTIONARY
360
19E
102
}
330
2A
100
AcDbVisualStyle
  2
Dim
 70
    11
 71
     2
 72
     2
 73
     0
 90
        0
 40
-0.6
 41
-30.0
 62
     5
 63
     7
 74
     1
 91
        4
 64
     7
 65
   257
 75
     1
175
     1
 42
1.0
 92
        8
 66
     7
 43
1.0
 76
     1
 77
     6
 78
     2
 67
     7
 79
     5
170
     0
171
     0
290
     0
174
     0
 93
        1
 44
-50.0
173
     0
291
     1
 45
0.0
1001
ACAD
1000
AcDbSavedByObjectVersion
1070
     0
  0
VISUALSTYLE
  5
39
102
{ACAD_REACTORS
330
2A
102
}
102
{ACAD_XDICTIONARY
360
1A6
102
}
330
2A
100
AcDbVisualStyle
  2
Facepattern
 70
    15
 71
     2
 72
     2
 73
     0
 90
        0
 40
-0.6
 41
-30.0
 62
     5
 63
     7
 74
     1
 91
        4
 64
     7
 65
   257
 75
     1
175
     1
 42
1.0
 92
        8
 66
     7
 43
1.0
 76
     1
 77
     6
 78
     2
 67
     7
 79
     5
170
     0
171
     0
290
     0
174
     0
 93
        1
 44
0.0
173
     0
291
     1
 45
0.0
1001
ACAD
1000
AcDbSavedByObjectVersion
1070
     0
  0
VISUALSTYLE
  5
2B
102
{ACAD_REACTORS
330
2A
102
}
102
{ACAD_XDICTIONARY
360
18A
102
}
330
2A
100
AcDbVisualStyle
  2
Flat
 70
     0
 71
     2
 72
     1
 73
     1
 90
        2
 40
-0.6
 41
30.0
 62
     5
 63
     7
 74
     0
 91
        4
 64
     7
 65
   257
 75
     1
175
     1
 42
1.0
 92
        8
 66
     7
 43
1.0
 76
     1
 77
     6
 78
     2
 67
     7
 79
     5
170
     0
171
     0
290
     0
174
     0
 93
       13
 44
0.0
173
     0
291
     1
 45
0.0
1001
ACAD
1000
AcDbSavedByObjectVersion
1070
     0
  0
VISUALSTYLE
  5
2C
102
{ACAD_REACTORS
330
2A
102
}
102
{ACAD_XDICTIONARY
360
18C
102
}
330
2A
100
AcDbVisualStyle
  2
FlatWithEdges
 70
     1
 71
     2
 72
     1
 73
     1
 90
        2
 40
-0.6
 41
30.0
 62
     5
 63
     7
 74
     1
 91
        4
 64
     7
 65
   257
 75
     1
175
     1
 42
1.0
 92
        0
 66
   257
 43
1.0
 76
     1
 77
     6
 78
     2
 67
     7
 79
     5
170
     0
171
     0
290
     0
174
     0
 93
       13
 44
0.0
173
     0
291
     1
 45
0.0
1001
ACAD
1000
AcDbSavedByObjectVersion
1070
     0
  0
VISUALSTYLE
  5
2D
102
{ACAD_REACTORS
330
2A
102
}
102
{ACAD_XDICTIONARY
360
18E
102
}
330
2A
100
AcDbVisualStyle
  2
Gouraud
 70
     2
 71
     2
 72
     2
 73
     1
 90
        2
 40
-0.6
 41
30.0
 62
     5
 63
     7
 74
     0
 91
        4
 64
     7
 65
   257
 75
     1
175
     1
 42
1.0
 92
        0
 66
     7
 43
1.0
 76
     1
 77
     6
 78
     2
 67
     7
 79
     5
170
     0
171
     0
290
     0
174
     0
 93
       13
 44
0.0
173
     0
291
     1
 45
0.0
1001
ACAD
1000
AcDbSavedByObjectVersion
1070
     0
  0
VISUALSTYLE
  5
2E
102
{ACAD_REACTORS
330
2A
102
}
102
{ACAD_XDICTIONARY
360
190
102
}
330
2A
100
AcDbVisualStyle
  2
GouraudWithEdges
 70
     3
 71
     2
 72
     2
 73
     1
 90
        2
 40
-0.6
 41
30.0
 62
     5
 63
     7
 74
     1
 91
        4
 64
     7
 65
   257
 75
     1
175
     1
 42
1.0
 92
        0
 66
   257
 43
1.0
 76
     1
 77
     6
 78
     2
 67
     7
 79
     5
170
     0
171
     0
290
     0
174
     0
 93
       13
 44
0.0
173
     0
291
     1
 45
0.0
1001
ACAD
1000
AcDbSavedByObjectVersion
1070
     0
  0
VISUALSTYLE
  5
38
102
{ACAD_REACTORS
330
2A
102
}
102
{ACAD_XDICTIONARY
360
1A4
102
}
330
2A
100
AcDbVisualStyle
  2
Linepattern
 70
    14
 71
     2
 72
     2
 73
     0
 90
        0
 40
-0.6
 41
-30.0
 62
     5
 63
     7
 74
     1
 91
        4
 64
     7
 65
   257
 75
     7
175
     7
 42
1.0
 92
        8
 66
     7
 43
1.0
 76
     1
 77
     6
 78
     2
 67
     7
 79
     5
170
     0
171
     0
290
     0
174
     0
 93
        1
 44
0.0
173
     0
291
     1
 45
0.0
1001
ACAD
1000
AcDbSavedByObjectVersion
1070
     0
  0
VISUALSTYLE
  5
33
102
{ACAD_REACTORS
330
2A
102
}
102
{ACAD_XDICTIONARY
360
19A
102
}
330
2A
100
AcDbVisualStyle
  2
Realistic
 70
     8
 71
     2
 72
     2
 73
     0
 90
        0
 40
-0.6
 41
-30.0
 62
     5
 63
     7
 74
     1
 91
        0
 64
     7
 65
   257
 75
     1
175
     1
 42
1.0
 92
        8
 66
     8
 43
1.0
 76
     1
 77
     6
 78
     2
 67
     7
 79
     5
170
     0
171
     0
290
     0
174
     0
 93
       13
 44
0.0
173
     0
291
     0
 45
0.0
1001
ACAD
1000
AcDbSavedByObjectVersion
1070
     0
  0
VISUALSTYLE
  5
37
102
{ACAD_REACTORS
330
2A
102
}
102
{ACAD_XDICTIONARY
360
1A2
102
}
330
2A
100
AcDbVisualStyle
  2
Thicken
 70
    13
 71
     2
 72
     2
 73
     0
 90
        0
 40
-0.6
 41
-30.0
 62
     5
 63
     7
 74
     1
 91
        4
 64
     7
 65
   257
 75
     1
175
     1
 42
1.0
 92
       12
 66
     7
 43
1.0
 76
     1
 77
     6
 78
     2
 67
     7
 79
     5
170
     0
171
     0
290
     0
174
     0
 93
        1
 44
0.0
173
     0
291
     1
 45
0.0
1001
ACAD
1000
AcDbSavedByObjectVersion
1070
     0
  0
DICTIONARYVAR
  5
188
102
{ACAD_REACTORS
330
183
102
}
330
183
100
DictionaryVariables
280
     0
  1
2
  0
DICTIONARYVAR
  5
189
102
{ACAD_REACTORS
330
183
102
}
330
183
100
DictionaryVariables
280
     0
  1
1
  0
DICTIONARYVAR
  5
187
102
{ACAD_REACTORS
330
183
102
}
330
183
100
DictionaryVariables
280
     0
  1
80.000000
  0
DICTIONARYVAR
  5
186
102
{ACAD_REACTORS
330
183
102
}
330
183
100
DictionaryVariables
280
     0
  1
5.000000
  0
DICTIONARY
  5
1AC
330
3D
100
AcDbDictionary
280
     1
281
     1
  3
ACAD_XREC_ROUNDTRIP
360
1AD
  0
DICTIONARY
  5
1AA
330
3C
100
AcDbDictionary
280
     1
281
     1
  3
ACAD_XREC_ROUNDTRIP
360
1AB
  0
DICTIONARY
  5
1AE
330
3E
100
AcDbDictionary
280
     1
281
     1
  3
ACAD_XREC_ROUNDTRIP
360
1AF
  0
DICTIONARY
  5
192
330
2F
100
AcDbDictionary
280
     1
281
     1
  3
ACAD_XREC_ROUNDTRIP
360
193
  0
DICTIONARY
  5
196
330
31
100
AcDbDictionary
280
     1
281
     1
  3
ACAD_XREC_ROUNDTRIP
360
197
  0
DICTIONARY
  5
194
330
30
100
AcDbDictionary
280
     1
281
     1
  3
ACAD_XREC_ROUNDTRIP
360
195
  0
DICTIONARY
  5
198
330
32
100
AcDbDictionary
280
     1
281
     1
  3
ACAD_XREC_ROUNDTRIP
360
199
  0
DICTIONARY
  5
1A0
330
36
100
AcDbDictionary
280
     1
281
     1
  3
ACAD_XREC_ROUNDTRIP
360
1A1
  0
DICTIONARY
  5
1A8
330
3A
100
AcDbDictionary
280
     1
281
     1
  3
ACAD_XREC_ROUNDTRIP
360
1A9
  0
DICTIONARY
  5
19C
330
34
100
AcDbDictionary
280
     1
281
     1
  3
ACAD_XREC_ROUNDTRIP
360
19D
  0
DICTIONARY
  5
19E
330
35
100
AcDbDictionary
280
     1
281
     1
  3
ACAD_XREC_ROUNDTRIP
360
19F
  0
DICTIONARY
  5
1A6
330
39
100
AcDbDictionary
280
     1
281
     1
  3
ACAD_XREC_ROUNDTRIP
360
1A7
  0
DICTIONARY
  5
18A
330
2B
100
AcDbDictionary
280
     1
281
     1
  3
ACAD_XREC_ROUNDTRIP
360
18B
  0
DICTIONARY
  5
18C
330
2C
100
AcDbDictionary
280
     1
281
     1
  3
ACAD_XREC_ROUNDTRIP
360
18D
  0
DICTIONARY
  5
18E
330
2D
100
AcDbDictionary
280
     1
281
     1
  3
ACAD_XREC_ROUNDTRIP
360
18F
  0
DICTIONARY
  5
190
330
2E
100
AcDbDictionary
280
     1
281
     1
  3
ACAD_XREC_ROUNDTRIP
360
191
  0
DICTIONARY
  5
1A4
330
38
100
AcDbDictionary
280
     1
281
     1
  3
ACAD_XREC_ROUNDTRIP
360
1A5
  0
DICTIONARY
  5
19A
330
33
100
AcDbDictionary
280
     1
281
     1
  3
ACAD_XREC_ROUNDTRIP
360
19B
  0
DICTIONARY
  5
1A2
330
37
100
AcDbDictionary
280
     1
281
     1
  3
ACAD_XREC_ROUNDTRIP
360
1A3
  0
XRECORD
  5
1AD
102
{ACAD_REACTORS
330
1AC
102
}
330
1AC
100
AcDbXrecord
280
     1
102
MATERIAL
148
0.0
149
0.0
149
0.0
 93
        0
 94
      127
282
     0
 72
     1
 77
     1
171
     1
175
     1
179
     1
273
     0
  0
XRECORD
  5
1AB
102
{ACAD_REACTORS
330
1AA
102
}
330
1AA
100
AcDbXrecord
280
     1
102
MATERIAL
148
0.0
149
0.0
149
0.0
 93
        0
 94
      127
282
     0
 72
     1
 77
     1
171
     1
175
     1
179
     1
273
     0
  0
XRECORD
  5
1AF
102
{ACAD_REACTORS
330
1AE
102
}
330
1AE
100
AcDbXrecord
280
     1
102
MATERIAL
148
0.0
149
0.0
149
0.0
 93
        0
 94
      127
282
     0
 72
     1
 77
     1
171
     1
175
     1
179
     1
273
     0
  0
XRECORD
  5
193
102
{ACAD_REACTORS
330
192
102
}
330
192
100
AcDbXrecord
280
     1
102
RTVSPropertyOp0
 70
     1
102
RTVSPropertyOp1
 70
     1
102
RTVSPropertyOp2
 70
     1
102
RTVSPropertyOp3
 70
     1
102
RTVSPropertyOp4
 70
     1
102
RTVSPropertyOp5
 70
     1
102
RTVSPropertyOp6
 70
     1
102
RTVSPropertyOp7
 70
     1
102
RTVSPropertyOp8
 70
     1
102
RTVSPropertyOp9
 70
     1
102
RTVSPropertyOp10
 70
     1
102
RTVSPropertyOp11
 70
     1
102
RTVSPropertyOp12
 70
     1
102
RTVSPropertyOp13
 70
     1
102
RTVSPropertyOp14
 70
     1
102
RTVSPropertyOp15
 70
     1
102
RTVSPropertyOp16
 70
     1
102
RTVSPropertyOp17
 70
     1
102
RTVSPropertyOp18
 70
     1
102
RTVSPropertyOp19
 70
     1
102
RTVSPropertyOp20
 70
     1
102
RTVSPropertyOp21
 70
     1
102
RTVSPropertyOp22
 70
     1
102
RTVSPropertyOp23
 70
     1
102
RTVSPropertyOp24
 70
     1
102
RTVSPropertyOp25
 70
     1
102
RTVSPropertyOp26
 70
     1
102
RTVSPropertyOp27
 70
     1
102
RTVSPropertyOp28
 70
     1
102
RTVSPropertyOp29
 70
     1
102
RTVSPropertyOp30
 70
     1
102
RTVSPropertyOp31
 70
     1
102
RTVSPropertyOp32
 70
     1
  0
XRECORD
  5
197
102
{ACAD_REACTORS
330
196
102
}
330
196
100
AcDbXrecord
280
     1
102
RTVSPropertyOp0
 70
     1
102
RTVSPropertyOp1
 70
     1
102
RTVSPropertyOp2
 70
     1
102
RTVSPropertyOp3
 70
     1
102
RTVSPropertyOp4
 70
     1
102
RTVSPropertyOp5
 70
     1
102
RTVSPropertyOp6
 70
     1
102
RTVSPropertyOp7
 70
     1
102
RTVSPropertyOp8
 70
     1
102
RTVSPropertyOp9
 70
     1
102
RTVSPropertyOp10
 70
     1
102
RTVSPropertyOp11
 70
     1
102
RTVSPropertyOp12
 70
     1
102
RTVSPropertyOp13
 70
     1
102
RTVSPropertyOp14
 70
     1
102
RTVSPropertyOp15
 70
     1
102
RTVSPropertyOp16
 70
     1
102
RTVSPropertyOp17
 70
     1
102
RTVSPropertyOp18
 70
     1
102
RTVSPropertyOp19
 70
     1
102
RTVSPropertyOp20
 70
     1
102
RTVSPropertyOp21
 70
     1
102
RTVSPropertyOp22
 70
     1
102
RTVSPropertyOp23
 70
     1
102
RTVSPropertyOp24
 70
     1
102
RTVSPropertyOp25
 70
     1
102
RTVSPropertyOp26
 70
     1
102
RTVSPropertyOp27
 70
     1
102
RTVSPropertyOp28
 70
     1
102
RTVSPropertyOp29
 70
     1
102
RTVSPropertyOp30
 70
     1
102
RTVSPropertyOp31
 70
     1
102
RTVSPropertyOp32
 70
     1
  0
XRECORD
  5
195
102
{ACAD_REACTORS
330
194
102
}
330
194
100
AcDbXrecord
280
     1
102
RTVSPropertyOp0
 70
     1
102
RTVSPropertyOp1
 70
     1
102
RTVSPropertyOp2
 70
     1
102
RTVSPropertyOp3
 70
     1
102
RTVSPropertyOp4
 70
     1
102
RTVSPropertyOp5
 70
     1
102
RTVSPropertyOp6
 70
     1
102
RTVSPropertyOp7
 70
     1
102
RTVSPropertyOp8
 70
     1
102
RTVSPropertyOp9
 70
     1
102
RTVSPropertyOp10
 70
     1
102
RTVSPropertyOp11
 70
     1
102
RTVSPropertyOp12
 70
     1
102
RTVSPropertyOp13
 70
     1
102
RTVSPropertyOp14
 70
     1
102
RTVSPropertyOp15
 70
     1
102
RTVSPropertyOp16
 70
     1
102
RTVSPropertyOp17
 70
     1
102
RTVSPropertyOp18
 70
     1
102
RTVSPropertyOp19
 70
     1
102
RTVSPropertyOp20
 70
     1
102
RTVSPropertyOp21
 70
     1
102
RTVSPropertyOp22
 70
     1
102
RTVSPropertyOp23
 70
     1
102
RTVSPropertyOp24
 70
     1
102
RTVSPropertyOp25
 70
     1
102
RTVSPropertyOp26
 70
     1
102
RTVSPropertyOp27
 70
     1
102
RTVSPropertyOp28
 70
     1
102
RTVSPropertyOp29
 70
     1
102
RTVSPropertyOp30
 70
     1
102
RTVSPropertyOp31
 70
     1
102
RTVSPropertyOp32
 70
     1
  0
XRECORD
  5
199
102
{ACAD_REACTORS
330
198
102
}
330
198
100
AcDbXrecord
280
     1
102
RTVSPropertyOp0
 70
     1
102
RTVSPropertyOp1
 70
     1
102
RTVSPropertyOp2
 70
     1
102
RTVSPropertyOp3
 70
     1
102
RTVSPropertyOp4
 70
     1
102
RTVSPropertyOp5
 70
     1
102
RTVSPropertyOp6
 70
     1
102
RTVSPropertyOp7
 70
     1
102
RTVSPropertyOp8
 70
     1
102
RTVSPropertyOp9
 70
     1
102
RTVSPropertyOp10
 70
     1
102
RTVSPropertyOp11
 70
     1
102
RTVSPropertyOp12
 70
     1
102
RTVSPropertyOp13
 70
     1
102
RTVSPropertyOp14
 70
     1
102
RTVSPropertyOp15
 70
     1
102
RTVSPropertyOp16
 70
     1
102
RTVSPropertyOp17
 70
     1
102
RTVSPropertyOp18
 70
     1
102
RTVSPropertyOp19
 70
     1
102
RTVSPropertyOp20
 70
     1
102
RTVSPropertyOp21
 70
     1
102
RTVSPropertyOp22
 70
     1
102
RTVSPropertyOp23
 70
     1
102
RTVSPropertyOp24
 70
     1
102
RTVSPropertyOp25
 70
     1
102
RTVSPropertyOp26
 70
     1
102
RTVSPropertyOp27
 70
     1
102
RTVSPropertyOp28
 70
     1
102
RTVSPropertyOp29
 70
     1
102
RTVSPropertyOp30
 70
     1
102
RTVSPropertyOp31
 70
     1
102
RTVSPropertyOp32
 70
     1
  0
XRECORD
  5
1A1
102
{ACAD_REACTORS
330
1A0
102
}
330
1A0
100
AcDbXrecord
280
     1
102
RTVSPropertyOp0
 70
     1
102
RTVSPropertyOp1
 70
     1
102
RTVSPropertyOp2
 70
     1
102
RTVSPropertyOp3
 70
     1
102
RTVSPropertyOp4
 70
     1
102
RTVSPropertyOp5
 70
     1
102
RTVSPropertyOp6
 70
     1
102
RTVSPropertyOp7
 70
     1
102
RTVSPropertyOp8
 70
     1
102
RTVSPropertyOp9
 70
     1
102
RTVSPropertyOp10
 70
     1
102
RTVSPropertyOp11
 70
     1
102
RTVSPropertyOp12
 70
     1
102
RTVSPropertyOp13
 70
     1
102
RTVSPropertyOp14
 70
     1
102
RTVSPropertyOp15
 70
     1
102
RTVSPropertyOp16
 70
     1
102
RTVSPropertyOp17
 70
     1
102
RTVSPropertyOp18
 70
     1
102
RTVSPropertyOp19
 70
     1
102
RTVSPropertyOp20
 70
     1
102
RTVSPropertyOp21
 70
     1
102
RTVSPropertyOp22
 70
     1
102
RTVSPropertyOp23
 70
     1
102
RTVSPropertyOp24
 70
     1
102
RTVSPropertyOp25
 70
     1
102
RTVSPropertyOp26
 70
     1
102
RTVSPropertyOp27
 70
     1
102
RTVSPropertyOp28
 70
     1
102
RTVSPropertyOp29
 70
     1
102
RTVSPropertyOp30
 70
     1
102
RTVSPropertyOp31
 70
     1
102
RTVSPropertyOp32
 70
     1
  0
XRECORD
  5
1A9
102
{ACAD_REACTORS
330
1A8
102
}
330
1A8
100
AcDbXrecord
280
     1
102
RTVSPropertyOp0
 70
     1
102
RTVSPropertyOp1
 70
     1
102
RTVSPropertyOp2
 70
     1
102
RTVSPropertyOp3
 70
     1
102
RTVSPropertyOp4
 70
     1
102
RTVSPropertyOp5
 70
     1
102
RTVSPropertyOp6
 70
     1
102
RTVSPropertyOp7
 70
     1
102
RTVSPropertyOp8
 70
     1
102
RTVSPropertyOp9
 70
     1
102
RTVSPropertyOp10
 70
     1
102
RTVSPropertyOp11
 70
     1
102
RTVSPropertyOp12
 70
     1
102
RTVSPropertyOp13
 70
     1
102
RTVSPropertyOp14
 70
     1
102
RTVSPropertyOp15
 70
     1
102
RTVSPropertyOp16
 70
     1
102
RTVSPropertyOp17
 70
     1
102
RTVSPropertyOp18
 70
     1
102
RTVSPropertyOp19
 70
     1
102
RTVSPropertyOp20
 70
     1
102
RTVSPropertyOp21
 70
     1
102
RTVSPropertyOp22
 70
     1
102
RTVSPropertyOp23
 70
     1
102
RTVSPropertyOp24
 70
     1
102
RTVSPropertyOp25
 70
     1
102
RTVSPropertyOp26
 70
     1
102
RTVSPropertyOp27
 70
     1
102
RTVSPropertyOp28
 70
     1
102
RTVSPropertyOp29
 70
     1
102
RTVSPropertyOp30
 70
     1
102
RTVSPropertyOp31
 70
     1
102
RTVSPropertyOp32
 70
     1
  0
XRECORD
  5
19D
102
{ACAD_REACTORS
330
19C
102
}
330
19C
100
AcDbXrecord
280
     1
102
RTVSPropertyOp0
 70
     1
102
RTVSPropertyOp1
 70
     1
102
RTVSPropertyOp2
 70
     1
102
RTVSPropertyOp3
 70
     1
102
RTVSPropertyOp4
 70
     1
102
RTVSPropertyOp5
 70
     1
102
RTVSPropertyOp6
 70
     1
102
RTVSPropertyOp7
 70
     1
102
RTVSPropertyOp8
 70
     1
102
RTVSPropertyOp9
 70
     1
102
RTVSPropertyOp10
 70
     1
102
RTVSPropertyOp11
 70
     1
102
RTVSPropertyOp12
 70
     1
102
RTVSPropertyOp13
 70
     1
102
RTVSPropertyOp14
 70
     1
102
RTVSPropertyOp15
 70
     1
102
RTVSPropertyOp16
 70
     1
102
RTVSPropertyOp17
 70
     1
102
RTVSPropertyOp18
 70
     1
102
RTVSPropertyOp19
 70
     1
102
RTVSPropertyOp20
 70
     1
102
RTVSPropertyOp21
 70
     1
102
RTVSPropertyOp22
 70
     1
102
RTVSPropertyOp23
 70
     1
102
RTVSPropertyOp24
 70
     1
102
RTVSPropertyOp25
 70
     1
102
RTVSPropertyOp26
 70
     1
102
RTVSPropertyOp27
 70
     1
102
RTVSPropertyOp28
 70
     1
102
RTVSPropertyOp29
 70
     1
102
RTVSPropertyOp30
 70
     1
102
RTVSPropertyOp31
 70
     1
102
RTVSPropertyOp32
 70
     1
  0
XRECORD
  5
19F
102
{ACAD_REACTORS
330
19E
102
}
330
19E
100
AcDbXrecord
280
     1
102
RTVSPropertyOp0
 70
     1
102
RTVSPropertyOp1
 70
     1
102
RTVSPropertyOp2
 70
     1
102
RTVSPropertyOp3
 70
     1
102
RTVSPropertyOp4
 70
     1
102
RTVSPropertyOp5
 70
     1
102
RTVSPropertyOp6
 70
     1
102
RTVSPropertyOp7
 70
     1
102
RTVSPropertyOp8
 70
     1
102
RTVSPropertyOp9
 70
     1
102
RTVSPropertyOp10
 70
     1
102
RTVSPropertyOp11
 70
     1
102
RTVSPropertyOp12
 70
     1
102
RTVSPropertyOp13
 70
     1
102
RTVSPropertyOp14
 70
     1
102
RTVSPropertyOp15
 70
     1
102
RTVSPropertyOp16
 70
     1
102
RTVSPropertyOp17
 70
     1
102
RTVSPropertyOp18
 70
     1
102
RTVSPropertyOp19
 70
     1
102
RTVSPropertyOp20
 70
     1
102
RTVSPropertyOp21
 70
     1
102
RTVSPropertyOp22
 70
     1
102
RTVSPropertyOp23
 70
     1
102
RTVSPropertyOp24
 70
     1
102
RTVSPropertyOp25
 70
     1
102
RTVSPropertyOp26
 70
     1
102
RTVSPropertyOp27
 70
     1
102
RTVSPropertyOp28
 70
     1
102
RTVSPropertyOp29
 70
     1
102
RTVSPropertyOp30
 70
     1
102
RTVSPropertyOp31
 70
     1
102
RTVSPropertyOp32
 70
     1
  0
XRECORD
  5
1A7
102
{ACAD_REACTORS
330
1A6
102
}
330
1A6
100
AcDbXrecord
280
     1
102
RTVSPropertyOp0
 70
     1
102
RTVSPropertyOp1
 70
     1
102
RTVSPropertyOp2
 70
     1
102
RTVSPropertyOp3
 70
     1
102
RTVSPropertyOp4
 70
     1
102
RTVSPropertyOp5
 70
     1
102
RTVSPropertyOp6
 70
     1
102
RTVSPropertyOp7
 70
     1
102
RTVSPropertyOp8
 70
     1
102
RTVSPropertyOp9
 70
     1
102
RTVSPropertyOp10
 70
     1
102
RTVSPropertyOp11
 70
     1
102
RTVSPropertyOp12
 70
     1
102
RTVSPropertyOp13
 70
     1
102
RTVSPropertyOp14
 70
     1
102
RTVSPropertyOp15
 70
     1
102
RTVSPropertyOp16
 70
     1
102
RTVSPropertyOp17
 70
     1
102
RTVSPropertyOp18
 70
     1
102
RTVSPropertyOp19
 70
     1
102
RTVSPropertyOp20
 70
     1
102
RTVSPropertyOp21
 70
     1
102
RTVSPropertyOp22
 70
     1
102
RTVSPropertyOp23
 70
     1
102
RTVSPropertyOp24
 70
     1
102
RTVSPropertyOp25
 70
     1
102
RTVSPropertyOp26
 70
     1
102
RTVSPropertyOp27
 70
     1
102
RTVSPropertyOp28
 70
     1
102
RTVSPropertyOp29
 70
     1
102
RTVSPropertyOp30
 70
     1
102
RTVSPropertyOp31
 70
     1
102
RTVSPropertyOp32
 70
     1
  0
XRECORD
  5
18B
102
{ACAD_REACTORS
330
18A
102
}
330
18A
100
AcDbXrecord
280
     1
102
RTVSPropertyOp0
 70
     1
102
RTVSPropertyOp1
 70
     1
102
RTVSPropertyOp2
 70
     1
102
RTVSPropertyOp3
 70
     1
102
RTVSPropertyOp4
 70
     1
102
RTVSPropertyOp5
 70
     1
102
RTVSPropertyOp6
 70
     1
102
RTVSPropertyOp7
 70
     1
102
RTVSPropertyOp8
 70
     1
102
RTVSPropertyOp9
 70
     1
102
RTVSPropertyOp10
 70
     1
102
RTVSPropertyOp11
 70
     1
102
RTVSPropertyOp12
 70
     1
102
RTVSPropertyOp13
 70
     1
102
RTVSPropertyOp14
 70
     1
102
RTVSPropertyOp15
 70
     1
102
RTVSPropertyOp16
 70
     1
102
RTVSPropertyOp17
 70
     1
102
RTVSPropertyOp18
 70
     1
102
RTVSPropertyOp19
 70
     1
102
RTVSPropertyOp20
 70
     1
102
RTVSPropertyOp21
 70
     1
102
RTVSPropertyOp22
 70
     1
102
RTVSPropertyOp23
 70
     1
102
RTVSPropertyOp24
 70
     1
102
RTVSPropertyOp25
 70
     1
102
RTVSPropertyOp26
 70
     1
102
RTVSPropertyOp27
 70
     1
102
RTVSPropertyOp28
 70
     1
102
RTVSPropertyOp29
 70
     1
102
RTVSPropertyOp30
 70
     1
102
RTVSPropertyOp31
 70
     1
102
RTVSPropertyOp32
 70
     1
  0
XRECORD
  5
18D
102
{ACAD_REACTORS
330
18C
102
}
330
18C
100
AcDbXrecord
280
     1
102
RTVSPropertyOp0
 70
     1
102
RTVSPropertyOp1
 70
     1
102
RTVSPropertyOp2
 70
     1
102
RTVSPropertyOp3
 70
     1
102
RTVSPropertyOp4
 70
     1
102
RTVSPropertyOp5
 70
     1
102
RTVSPropertyOp6
 70
     1
102
RTVSPropertyOp7
 70
     1
102
RTVSPropertyOp8
 70
     1
102
RTVSPropertyOp9
 70
     1
102
RTVSPropertyOp10
 70
     1
102
RTVSPropertyOp11
 70
     1
102
RTVSPropertyOp12
 70
     1
102
RTVSPropertyOp13
 70
     1
102
RTVSPropertyOp14
 70
     1
102
RTVSPropertyOp15
 70
     1
102
RTVSPropertyOp16
 70
     1
102
RTVSPropertyOp17
 70
     1
102
RTVSPropertyOp18
 70
     1
102
RTVSPropertyOp19
 70
     1
102
RTVSPropertyOp20
 70
     1
102
RTVSPropertyOp21
 70
     1
102
RTVSPropertyOp22
 70
     1
102
RTVSPropertyOp23
 70
     1
102
RTVSPropertyOp24
 70
     1
102
RTVSPropertyOp25
 70
     1
102
RTVSPropertyOp26
 70
     1
102
RTVSPropertyOp27
 70
     1
102
RTVSPropertyOp28
 70
     1
102
RTVSPropertyOp29
 70
     1
102
RTVSPropertyOp30
 70
     1
102
RTVSPropertyOp31
 70
     1
102
RTVSPropertyOp32
 70
     1
  0
XRECORD
  5
18F
102
{ACAD_REACTORS
330
18E
102
}
330
18E
100
AcDbXrecord
280
     1
102
RTVSPropertyOp0
 70
     1
102
RTVSPropertyOp1
 70
     1
102
RTVSPropertyOp2
 70
     1
102
RTVSPropertyOp3
 70
     1
102
RTVSPropertyOp4
 70
     1
102
RTVSPropertyOp5
 70
     1
102
RTVSPropertyOp6
 70
     1
102
RTVSPropertyOp7
 70
     1
102
RTVSPropertyOp8
 70
     1
102
RTVSPropertyOp9
 70
     1
102
RTVSPropertyOp10
 70
     1
102
RTVSPropertyOp11
 70
     1
102
RTVSPropertyOp12
 70
     1
102
RTVSPropertyOp13
 70
     1
102
RTVSPropertyOp14
 70
     1
102
RTVSPropertyOp15
 70
     1
102
RTVSPropertyOp16
 70
     1
102
RTVSPropertyOp17
 70
     1
102
RTVSPropertyOp18
 70
     1
102
RTVSPropertyOp19
 70
     1
102
RTVSPropertyOp20
 70
     1
102
RTVSPropertyOp21
 70
     1
102
RTVSPropertyOp22
 70
     1
102
RTVSPropertyOp23
 70
     1
102
RTVSPropertyOp24
 70
     1
102
RTVSPropertyOp25
 70
     1
102
RTVSPropertyOp26
 70
     1
102
RTVSPropertyOp27
 70
     1
102
RTVSPropertyOp28
 70
     1
102
RTVSPropertyOp29
 70
     1
102
RTVSPropertyOp30
 70
     1
102
RTVSPropertyOp31
 70
     1
102
RTVSPropertyOp32
 70
     1
  0
XRECORD
  5
191
102
{ACAD_REACTORS
330
190
102
}
330
190
100
AcDbXrecord
280
     1
102
RTVSPropertyOp0
 70
     1
102
RTVSPropertyOp1
 70
     1
102
RTVSPropertyOp2
 70
     1
102
RTVSPropertyOp3
 70
     1
102
RTVSPropertyOp4
 70
     1
102
RTVSPropertyOp5
 70
     1
102
RTVSPropertyOp6
 70
     1
102
RTVSPropertyOp7
 70
     1
102
RTVSPropertyOp8
 70
     1
102
RTVSPropertyOp9
 70
     1
102
RTVSPropertyOp10
 70
     1
102
RTVSPropertyOp11
 70
     1
102
RTVSPropertyOp12
 70
     1
102
RTVSPropertyOp13
 70
     1
102
RTVSPropertyOp14
 70
     1
102
RTVSPropertyOp15
 70
     1
102
RTVSPropertyOp16
 70
     1
102
RTVSPropertyOp17
 70
     1
102
RTVSPropertyOp18
 70
     1
102
RTVSPropertyOp19
 70
     1
102
RTVSPropertyOp20
 70
     1
102
RTVSPropertyOp21
 70
     1
102
RTVSPropertyOp22
 70
     1
102
RTVSPropertyOp23
 70
     1
102
RTVSPropertyOp24
 70
     1
102
RTVSPropertyOp25
 70
     1
102
RTVSPropertyOp26
 70
     1
102
RTVSPropertyOp27
 70
     1
102
RTVSPropertyOp28
 70
     1
102
RTVSPropertyOp29
 70
     1
102
RTVSPropertyOp30
 70
     1
102
RTVSPropertyOp31
 70
     1
102
RTVSPropertyOp32
 70
     1
  0
XRECORD
  5
1A5
102
{ACAD_REACTORS
330
1A4
102
}
330
1A4
100
AcDbXrecord
280
     1
102
RTVSPropertyOp0
 70
     1
102
RTVSPropertyOp1
 70
     1
102
RTVSPropertyOp2
 70
     1
102
RTVSPropertyOp3
 70
     1
102
RTVSPropertyOp4
 70
     1
102
RTVSPropertyOp5
 70
     1
102
RTVSPropertyOp6
 70
     1
102
RTVSPropertyOp7
 70
     1
102
RTVSPropertyOp8
 70
     1
102
RTVSPropertyOp9
 70
     1
102
RTVSPropertyOp10
 70
     1
102
RTVSPropertyOp11
 70
     1
102
RTVSPropertyOp12
 70
     1
102
RTVSPropertyOp13
 70
     1
102
RTVSPropertyOp14
 70
     1
102
RTVSPropertyOp15
 70
     1
102
RTVSPropertyOp16
 70
     1
102
RTVSPropertyOp17
 70
     1
102
RTVSPropertyOp18
 70
     1
102
RTVSPropertyOp19
 70
     1
102
RTVSPropertyOp20
 70
     1
102
RTVSPropertyOp21
 70
     1
102
RTVSPropertyOp22
 70
     1
102
RTVSPropertyOp23
 70
     1
102
RTVSPropertyOp24
 70
     1
102
RTVSPropertyOp25
 70
     1
102
RTVSPropertyOp26
 70
     1
102
RTVSPropertyOp27
 70
     1
102
RTVSPropertyOp28
 70
     1
102
RTVSPropertyOp29
 70
     1
102
RTVSPropertyOp30
 70
     1
102
RTVSPropertyOp31
 70
     1
102
RTVSPropertyOp32
 70
     1
  0
XRECORD
  5
19B
102
{ACAD_REACTORS
330
19A
102
}
330
19A
100
AcDbXrecord
280
     1
102
RTVSPropertyOp0
 70
     1
102
RTVSPropertyOp1
 70
     1
102
RTVSPropertyOp2
 70
     1
102
RTVSPropertyOp3
 70
     1
102
RTVSPropertyOp4
 70
     1
102
RTVSPropertyOp5
 70
     1
102
RTVSPropertyOp6
 70
     1
102
RTVSPropertyOp7
 70
     1
102
RTVSPropertyOp8
 70
     1
102
RTVSPropertyOp9
 70
     1
102
RTVSPropertyOp10
 70
     1
102
RTVSPropertyOp11
 70
     1
102
RTVSPropertyOp12
 70
     1
102
RTVSPropertyOp13
 70
     1
102
RTVSPropertyOp14
 70
     1
102
RTVSPropertyOp15
 70
     1
102
RTVSPropertyOp16
 70
     1
102
RTVSPropertyOp17
 70
     1
102
RTVSPropertyOp18
 70
     1
102
RTVSPropertyOp19
 70
     1
102
RTVSPropertyOp20
 70
     1
102
RTVSPropertyOp21
 70
     1
102
RTVSPropertyOp22
 70
     1
102
RTVSPropertyOp23
 70
     1
102
RTVSPropertyOp24
 70
     1
102
RTVSPropertyOp25
 70
     1
102
RTVSPropertyOp26
 70
     1
102
RTVSPropertyOp27
 70
     1
102
RTVSPropertyOp28
 70
     1
102
RTVSPropertyOp29
 70
     1
102
RTVSPropertyOp30
 70
     1
102
RTVSPropertyOp31
 70
     1
102
RTVSPropertyOp32
 70
     1
  0
XRECORD
  5
1A3
102
{ACAD_REACTORS
330
1A2
102
}
330
1A2
100
AcDbXrecord
280
     1
102
RTVSPropertyOp0
 70
     1
102
RTVSPropertyOp1
 70
     1
102
RTVSPropertyOp2
 70
     1
102
RTVSPropertyOp3
 70
     1
102
RTVSPropertyOp4
 70
     1
102
RTVSPropertyOp5
 70
     1
102
RTVSPropertyOp6
 70
     1
102
RTVSPropertyOp7
 70
     1
102
RTVSPropertyOp8
 70
     1
102
RTVSPropertyOp9
 70
     1
102
RTVSPropertyOp10
 70
     1
102
RTVSPropertyOp11
 70
     1
102
RTVSPropertyOp12
 70
     1
102
RTVSPropertyOp13
 70
     1
102
RTVSPropertyOp14
 70
     1
102
RTVSPropertyOp15
 70
     1
102
RTVSPropertyOp16
 70
     1
102
RTVSPropertyOp17
 70
     1
102
RTVSPropertyOp18
 70
     1
102
RTVSPropertyOp19
 70
     1
102
RTVSPropertyOp20
 70
     1
102
RTVSPropertyOp21
 70
     1
102
RTVSPropertyOp22
 70
     1
102
RTVSPropertyOp23
 70
     1
102
RTVSPropertyOp24
 70
     1
102
RTVSPropertyOp25
 70
     1
102
RTVSPropertyOp26
 70
     1
102
RTVSPropertyOp27
 70
     1
102
RTVSPropertyOp28
 70
     1
102
RTVSPropertyOp29
 70
     1
102
RTVSPropertyOp30
 70
     1
102
RTVSPropertyOp31
 70
     1
102
RTVSPropertyOp32
 70
     1
  0
ENDSEC
  0
EOF
